Alkaline Trio — Bleeder

На этой странице Вы можете ознакомиться с 2 версиями подбора аккордов для гитары к песне "Bleeder" группы (исполнителя) "Alkaline Trio".

Artist: Alkaline Trio
Title: Bleeder
Album: I Lied My Face Off/Self-titled
Transcribed by: Jim TaoneMikey G

Intro:
-----------------------------------------------------|
-----------------------------------------------------|
-----------------------------------------------------|
-2-2-3-3-3-3--2-2-3-3-3-3--2-2-3-3-3-3--2-2-3-3-3-3--|
-3-3-3-3-3-3--3-3-3-3-3-3--3-3-3-3-3-3--3-3-3-3-3-3--|
-----------------------------------------------------|


Verse:
-----------------------------------------------------------|
-----------------------------------------------------------|
-----------------------------------------------------------|
-2-2-3-3-3-3----2-2-3-3-3-3-------------------3-3-3-3-3-3--| palm mute twice
-3-3-3-3-3-3----3-3-3-3-3-3----2-2-3-3-3-3----3-3-3-3-3-3--|
-------------------------------3-3-3-3-3-3----1-1-1-1-1-1--|


Chorus:
------------------------------------------------------------------------|
------------------------------------------------------------------------|
-12-12-12--10-10-10--5-5-5-5-------------------9-9-9-9-----------------|
-12-12-12--10-10-10--5-5-5-5--5-5-5--5-5--5-5--9-9-9-9-3-3-3-3--5-5-5-5|
-10-10-10---8--8--8--3-3-3-3--5-5-5--5-5--5-5--7-7-7-7-3-3-3-3--5-5-5-5|
------------------------------3-3-3--3-3--3-3-----------1-1-1-1--3-3-3-3|


Outro part 1:
------------------------------------------------------------|
------------------------------------------------------------|
-5-5-5-5-------------5-5-5-5--------------------------------|
-x-x-x-x---5-5-5-5---x-x-x-x---5-5-5-5---2-2-2-2---5-5-5-5--|
-3-3-3-3---x-x-x-x---3-3-3-3---x-x-x-x---2-2-2-2---5-5-5-5--|
-----------3-3-3-3-------------3-3-3-3---0-0-0-0---3-3-3-3--|


Outro part 2:
--------------------------------|
--------------------------------|
-5-5-5-5-5-5--------------------|
-x-x-x-x-x-x---5-5-5-5/7-75-5--|
-3-3-3-3-3-3---x-x-x-x-x-x-x-x--|
---------------3-3-3-3/5-53-3--|

Outro part 3:
------------------------------------|
------------------------------------|
-5-5-5-54-4/5-5--------------------|
-x-x-x-x-x-x-x-x---5-5-5-5/7-75-5--|
-3-3-3-32-2/3-3---x-x-x-x-x-x-x-x--|
-------------------3-3-3-3/5-53-3--|


Outro part 4:
----------------------------------------|
----------------------------------------|
-5-5-5-5/9-97-75-5--------------------|
-x-x-x-x-x-x-x-x-x-x---5-5-5-5/7-75-5--|
-3-3-3-3/7-75-53-3---x-x-x-x-x-x-x-x--|
-----------------------3-3-3-3/5-53-3--|


Fill 1:
--------------------------------------|
--------------------------------------|
-----------7-7-7-75-5-5-5------------|
-2-2-2-2---x-x-x-x-x-x-x-x---5-5-5-5--|
-2-2-2-2---5-5-5-53-3-3-3---5-5-5-5--|
-0-0-0-0---------------------3-3-3-3--|


Songflow:
Intro
Verse 2x (clean)
Verse 2x
Chorus
Verse 4x
Chorus
Intro
Verse 4x
Chorus 2x
Outro part 1
Outro part 2 4x
Outro part 3 2x
Outro part 4 2x
Fill 1
Chorus 2x
Author/Artist: Alkaline Trio
Title: Bleeder
Album: I Lied My Face Off/Self-titled
Transcribed by: Jim Taone
Email: j_bro124@hotmail.com

Great song, it's a little long, but the jamming
part in the middle is really fun...

enjoy,
jim


Intro:
-----------------------------------------------------|
-----------------------------------------------------|
-----------------------------------------------------|
-2-2-3-3-3-3--2-2-3-3-3-3--2-2-3-3-3-3--2-2-3-3-3-3--|
-3-3-3-3-3-3--3-3-3-3-3-3--3-3-3-3-3-3--3-3-3-3-3-3--|
-----------------------------------------------------|


Verse:
-----------------------------------------------------------|
-----------------------------------------------------------|
-----------------------------------------------------------|
-2-2-3-3-3-3----2-2-3-3-3-3-------------------3-3-3-3-3-3--|
-3-3-3-3-3-3----3-3-3-3-3-3----2-2-3-3-3-3----3-3-3-3-3-3--|
-------------------------------3-3-3-3-3-3----1-1-1-1-1-1--|


Chorus:
-----------------------------------------------------------|
-----------------------------------------------------------|
-9-9-9--10-10-10--9-9--5-5-5-5-------------------9-9-9-9--|
-7-7-7--7--7--7---7-7--5-5-5-5--5-5-5--5-5--5-5--9-9-9-9--|
-0-0-0--0--0--0---0-0--3-3-3-3--5-5-5--5-5--5-5--7-7-7-7--|
--------------------------------3-3-3--3-3--3-3------------|

--------------------|
--------------------|
--------------------|
-3-3-3-3---5-5-5-5--|
-3-3-3-3---5-5-5-5--|
-1-1-1-1---3-3-3-3--|


Outro part 1:
------------------------------------------------------------|
------------------------------------------------------------|
-5-5-5-5-------------5-5-5-5--------------------------------|
-x-x-x-x---5-5-5-5---x-x-x-x---5-5-5-5---2-2-2-2---5-5-5-5--|
-3-3-3-3---x-x-x-x---3-3-3-3---x-x-x-x---2-2-2-2---5-5-5-5--|
-----------3-3-3-3-------------3-3-3-3---0-0-0-0---3-3-3-3--|


Outro part 2:
--------------------------------|
--------------------------------|
-5-5-5-5-5-5--------------------|
-x-x-x-x-x-x---5-5-5-5/7-75-5--|
-3-3-3-3-3-3---x-x-x-x-x-x-x-x--|
---------------3-3-3-3/5-53-3--|

Outro part 3:
------------------------------------|
------------------------------------|
-5-5-5-54-4/5-5--------------------|
-x-x-x-x-x-x-x-x---5-5-5-5/7-75-5--|
-3-3-3-32-2/3-3---x-x-x-x-x-x-x-x--|
-------------------3-3-3-3/5-53-3--|


Outro part 4:
----------------------------------------|
----------------------------------------|
-5-5-5-5/9-97-75-5--------------------|
-x-x-x-x-x-x-x-x-x-x---5-5-5-5/7-75-5--|
-3-3-3-3/7-75-53-3---x-x-x-x-x-x-x-x--|
-----------------------3-3-3-3/5-53-3--|


Fill 1:
--------------------------------------|
--------------------------------------|
-----------7-7-7-75-5-5-5------------|
-2-2-2-2---x-x-x-x-x-x-x-x---5-5-5-5--|
-2-2-2-2---5-5-5-53-3-3-3---5-5-5-5--|
-0-0-0-0---------------------3-3-3-3--|


Songflow:
Intro
Verse 2x (clean)
Verse 2x
Chorus
Verse 4x
Chorus
Intro
Verse 4x
Chorus 2x
Outro part 1
Outro part 2 4x
Outro part 3 2x
Outro part 4 2x
Fill 1
Chorus 2x


Questions, comments, corrections: e-mail me at j_bro124@hotmail.com