Alkaline Trio — Bloodied Up

На этой странице Вы можете ознакомиться с 2 версиями подбора аккордов для гитары к песне "Bloodied Up" группы (исполнителя) "Alkaline Trio".

Author/Artist: Alkaline Trio
Title: Bloodied Up
Album: From Here To Infirmary
Transcribed by: Jim Taone
Email: j_bro124@hotmail.com

Yet another song off the new album... tabbed by ear...
I saw alot of versions of this tab... but I think this should be
most accurate... I'll have some of their older stuff for more
hardcore fans in a bit... enjoy... jim


Intro
-----------------------------------------------------------|
-0-0-0-0-0-0-0--2-2-2-2-2----------------------------------|
-2-2-2-2-2-2-2--2-2-2-2-2--7-7--6-6-6--7-7-----------------| 2x
-2-2-2-2-2-2-2--2-2-2-2-2--4-4--4-4-4--5-5---2-2-2-2-2-----|
-0-0-0-0-0-0-0--0-0-0-0-0--------------------2-2-2-2-2-----|
---------------------------------------------0-0-0-0-0-----|

Verse Palm muted
-----------------------------------------------------------|
-----------------------------------------------------------|
-----------------------------------------------------------| 4x
-2-2-2-2-2-2-2-2-2---7-7-7-7-7-7-7-6-6--7-7-7-7-7-7-7-7-7--|
-0-0-0-0-0-0-0-0-0---4-4-4-4-4-4-4-4-4--5-5-5-5-5-5-5-5-5--|
-----------------------------------------------------------|

Chorus
------------------------------------------------------------|
------------------------------------------------------------|
--2-2-2-2-2---------------------------7-7-7-7-7---9-9-9-9-9-| 2x
--2-2-2-2-2---4-4-4-4-4---2-2-2-2-2---7-7-7-7-7---9-9-9-9-9-|
--0-0-0-0-0---4-4-4-4-4---2-2-2-2-2---5-5-5-5-5---7-7-7-7-7-|
--------------2-2-2-2-2---0-0-0-0-0-------------------------|

Bridge
------------------------------------------------------------|
------------------------------------------------------------|
--9-9-9-9-9-9---7-7-7---6-6-6-6-----------------------------| 3x
--x-x-x-x-x-x---x-x-x---x-x-x-x-----------------------------|
--7-7-7-7-7-7---5-5-5---4-4-4-4-----------------------------|
------------------------------------------------------------|

On 3rd time end with:
------------------------------------------------------------|
------------------------------------------------------------|
--4-4-4-4-4-4-4---2-2-2-2-2---------------------------------|
--x-x-x-x-x-x-x---x-x-x-x-x---------------------------------|
--2-2-2-2-2-2-2---0-0-0-0-0---------------------------------|
------------------------------------------------------------|

Outro
------------------------------------------------------------|
------------------------------------------------------------|
--14-14-14-14-14------------11-11-11-11-11--9-9-9-9---------|
--x--x--x--x--x---11-11-11--x--x--x--x--x---x-x-x-x---------|
--12-12-12-12-12--x--x--x---9--9--9--9--9---7-7-7-7---------|
------------------9--9--9-----------------------------------|


------------------------------------------------------------|
------------------------------------------------------------|
--13-13-14-14-14-7-7-7-7-9-9-9-9-7-7--2--------------------|
--x--x--x--x--x--x-x-x-x-x-x-x-x-x-x--2--------------------|
--11-11-12-12-12-5-5-5-5-7-7-7-7-5-5--0--------------------|
------------------------------------------------------------|

Songflow:
Intro
Verse
Intro
Verse
Chorus
Intro
Verse
Intro
Bridge
Chorus
Outro


Questions, comments, corrections... e-mail me at j_bro124@hotmail.com
By Haj

Intro
e|----------------------------------------------------|
B|----------------------------------------------------|
G|----------------------------------------2-----------|
D|---9999--11-11-11-11----7-x-6-x-7-x-6-x-2-----------|
A|---0000--0--0--0--0-----4-x-4-x-5-x-5-x-0-----------|
E|---0000--0--0--0--0-----0-x-0-x-0-x-0-x-0-----------|

Verse
e|-------------------------------------------------|
B|-------------------------------------------------|
G|-------------6---------7-------------------------|
D|---7---------6---------7-------------------------|
A|---7---------4---------5-------------------------|
E|---5---------------------------------------------|
~~~~~~~~~P.M~~~~~~~~~~~P.M~~~~~~~~~~~P.M~~~~~~~~~~~
Listen for strumming.......

Chorus
e|--------------------------------------------------|
B|--------------------------------------------------|
G|---------------------------------7---------9------|
D|----7---------4---------2--------7---------9------|
A|----7---------4---------2--------5---------7------|
E|----5---------2---------0-------------------------|
Listen for strumming...... (same as fast part)

Ending bridge
e|----------------------------------------------------|
B|----------------------------------------------------|
G|---9-------7---------6----|-----4----6-----4-----7--|
D|---x-------x---------x----|-----x----x-----x-----x--|
A|---7-------5---------4----|-----2----4-----2-----5--|
E|----------------------------------------------------|
Listen for strumming.......

Ending
e|-------------------------------------------------------|
B|-------------------------------------------------------|
G|---14--------11---9----13----14----7---9---7-----------|
D|---xx---11---x----x----xx----xx----x---x---x---7----7--|
A|---12---x----9----7----11----12----5---7---5---7----7--|
E|--------9--------------------------------------5----5--|
Listen for strumming......