Alkaline Trio — Continental

11/12/03
Artist: Alkaline Trio
Title: Continental
Album: Good Mourning
Tabbed by: Luke Tebbutt
Email: Musicboffin@aol.com
Website: http://www.musicboffin.net
Tuning: Standard (eg E, A, D, G, B, e)

One of my favouites by Alkaline Trio, which I think
needs tabbing out fully and properly. This is the
entire song, which to the best of my musical knowledge
is correct. It might take you a little while to get
upto the speed of the recording, but its great for
playing with your mates. Here we go!!!


Intro (Light Distortion)

e|-------------------------------------------------|
B|-------------------------------------------------|
G|-------------------------------------------------|
D|--------6--------4--------7--------4--------6----|
A|--4--4-----4--4-----4--4-----4--4-----4--4-------|
E|-------------------------------------------------|

e|-------------------------------------------------|
B|-------------------------------------------------|
G|-------------------------------------------------|
D|--------6--------4--------1--1--1--2--2--2--1----|
A|--0--0-----0--0-----0--0--2--2--2--2--2--2--2----|
E|-------------------------------------------------| x2

Verse

e|-------------------------------------------------|
B|-------------------------------------------------|
G|--6--6--6--6--6--6--6--6--1--1--1--2--2--2--1--1-|
D|--6--6--6--6--6--6--6--6--2--2--2--2--2--2--2--2-|
A|--4--4--4--4--4--4--4--4--0--0--0--0--0--0--0--0-|
E|-------------------------------------------------|

e|-------------------------------------------------|
B|-------------------------------------------------|
G|--4--4--4--4--4--4--4--4--4--4--4--4--4--4--4--4-|
D|--4--4--4--4--4--4--4--4--4--4--4--4--4--4--4--4-|
A|--2--2--2--2--2--2--2--2--2--2--2--2--2--2--2--2-|
E|-------------------------------------------------| x 3




e|-------------------------------------------------|
B|-------------------------------------------------|
G|--2--2--2--2--2--2--2--2--2----------------------|
D|--2--2--2--2--2--2--2--2--2--2--2--2--2--2--2--2-|
A|--0--0--0--0--0--0--0--0--2--2--2--2--2--2--2--2-|
E|--------------------------0--0--0--0--0--0--0--0-|

e|-------------------------------------------------|
B|-------------------------------------------------|
G|--4--4--4--4--4--4--4--4--4--4--4--4--4--4--4--4-|
D|--4--4--4--4--4--4--4--4--4--4--4--4--4--4--4--4-|
A|--2--2--2--2--2--2--2--2--2--2--2--2--2--2--2--2-|
E|-------------------------------------------------| x 1




e|-------------------------------------------------|
B|-------------------------------------------------|
G|--6--6--6--6--6--6--6--6--1--1--1--2--2--2--1--1-|
D|--6--6--6--6--6--6--6--6--2--2--2--2--2--2--2--2-|
A|--4--4--4--4--4--4--4--4--0--0--0--0--0--0--0--0-|
E|-------------------------------------------------|

e|-------------------------------------------------|
B|-------------------------------------------------|
G|--4--4--4--4--4--4--4--4--4--4--4--4--4--4--4--4-|
D|--4--4--4--4--4--4--4--4--4--4--4--4--4--4--4--4-|
A|--2--2--2--2--2--2--2--2--2--2--2--2--2--2--2--2-|
E|-------------------------------------------------| x 2




e|-------------------------------------------------|
B|-------------------------------------------------|
G|--6--6--6--6--6--6--6--6--1--1--1--2--2--2--1--1-|
D|--6--6--6--6--6--6--6--6--2--2--2--2--2--2--2--2-|
A|--4--4--4--4--4--4--4--4--0--0--0--0--0--0--0--0-|
E|-------------------------------------------------|

e|-------------------------------------------------|
B|-------------------------------------------------|
G|--9--9--9--9--9--9--9--9--9--9--9--9--9--9--9--9-|
D|--9--9--9--9--9--9--9--9--9--9--9--9--9--9--9--9-|
A|--7--7--7--7--7--7--7--7--7--7--7--7--7--7--7--7-|
E|-------------------------------------------------|

e|-------------------------------------------------|
B|-------------------------------------------------|
G|--4--4--4--4--4--4--4--4--4--4--4--4--4--4--4--4-|
D|--4--4--4--4--4--4--4--4--4--4--4--4--4--4--4--4-|
A|--2--2--2--2--2--2--2--2--2--2--2--2--2--2--2--2-|
E|-------------------------------------------------|

e|-------------------------------------------------|
B|-------------------------------------------------|
G|--4--4--4--4--4--4--4--4--4--4--4--4--4--4--4--4-|
D|--4--4--4--4--4--4--4--4--4--4--4--4--4--4--4--4-|
A|--2--2--2--2--2--2--2--2--2--2--2--2--2--2--2--2-|
E|-------------------------------------------------| x 1

Chorus

e|-------------------------------------------------|
B|-------------------------------------------------|
G|--2--2--2--2--2--2--2--2--2----------------------|
D|--2--2--2--2--2--2--2--2--2--2--2--2--2--2--2--2-|
A|--0--0--0--0--0--0--0--0--2--2--2--2--2--2--2--2-|
E|--------------------------0--0--0--0--0--0--0--0-|

e|-------------------------------------------------|
B|-------------------------------------------------|
G|--4--4--4--4--4--4--4--4--4--4--4--4--4--4--4--4-|
D|--4--4--4--4--4--4--4--4--4--4--4--4--4--4--4--4-|
A|--2--2--2--2--2--2--2--2--2--2--2--2--2--2--2--2-|
E|-------------------------------------------------| x 2




e|-------------------------------------------------|
B|-------------------------------------------------|
G|--------2--2--2--2--2--2-------------------------|
D|-6--6---2--2--2--2--2--2--2--2--2--2--2--2--2--2-|
A|-6--6---0--0--0--0--0--0--2--2--2--2--2--2--2--2-|
E|-4--4---------------------0--0--0--0--0--0--0--0-|

e|-------------------------------------------------|
B|-------------------------------------------------|
G|--4--4--4--4--4--4--4--4--4--4--4--4--4--4--4--4-|
D|--4--4--4--4--4--4--4--4--4--4--4--4--4--4--4--4-|
A|--2--2--2--2--2--2--2--2--2--2--2--2--2--2--2--2-|
E|-------------------------------------------------| x 1




e|-------------------------------------------------|
B|-------------------------------------------------|
G|-------------------------------------------------|
D|-------------------------------------------------|
A|--7--7--7--7--7--7--7--7--6--6--6--6--6--6--6--6-|
E|--4--4--4--4--4--4--4--4--4--4--4--4--4--4--4--4-|

e|-------------------------------------------------|
B|-------------------------------------------------|
G|-------------------------------------------------|
D|--7--7--7--7--7--7--7--7--9--9--9--9--9--9--9--9-|
A|--7--7--7--7--7--7--7--7--9--9--9--9--9--9--9--9-|
E|--5--5--5--5--5--5--5--5--7--7--7--7--7--7--7--7-| x 1




e|-------------------------------------------------|
B|-------------------------------------------------|
G|-------------------------------------------------|
D|--------6--------4--------7--------4--------6----|
A|--4--4-----4--4-----4--4-----4--4-----4--4-------|
E|-------------------------------------------------|

e|-------------------------------------------------|
B|-------------------------------------------------|
G|-------------------------------------------------|
D|--------6--------4--------1--1--1--2--2--2--1----|
A|--0--0-----0--0-----0--0--2--2--2--2--2--2--2----|
E|-------------------------------------------------| x2


Verse 2 (Light Distortion, Palm Muted)


e|-------------------------------------------------|
B|-------------------------------------------------|
G|--6--6--6--6--6--6--6--6--1--1--1--2--2--2--1--1-|
D|--6--6--6--6--6--6--6--6--2--2--2--2--2--2--2--2-|
A|--4--4--4--4--4--4--4--4--0--0--0--0--0--0--0--0-|
E|-------------------------------------------------|

e|-------------------------------------------------|
B|-------------------------------------------------|
G|--4--4--4--4--4--4--4--4--4--4--4--4--4--4--4--4-|
D|--4--4--4--4--4--4--4--4--4--4--4--4--4--4--4--4-|
A|--2--2--2--2--2--2--2--2--2--2--2--2--2--2--2--2-|
E|-------------------------------------------------| x 2




e|-------------------------------------------------|
B|-------------------------------------------------|
G|--6--6--6--6--6--6--6--6--1--1--1--2--2--2--1--1-|
D|--6--6--6--6--6--6--6--6--2--2--2--2--2--2--2--2-|
A|--4--4--4--4--4--4--4--4--0--0--0--0--0--0--0--0-|
E|-------------------------------------------------|

e|-------------------------------------------------|
B|-------------------------------------------------|
G|--9--9--9--9--9--9--9--9--9--9--9--9--9--9--9--9-|
D|--9--9--9--9--9--9--9--9--9--9--9--9--9--9--9--9-|
A|--7--7--7--7--7--7--7--7--7--7--7--7--7--7--7--7-|
E|-------------------------------------------------|

e|-------------------------------------------------|
B|-------------------------------------------------|
G|--4--4--4--4--4--4--4--4--4--4--4--4--4--4--4--4-|
D|--4--4--4--4--4--4--4--4--4--4--4--4--4--4--4--4-|
A|--2--2--2--2--2--2--2--2--2--2--2--2--2--2--2--2-|
E|-------------------------------------------------|

e|-------------------------------------------------|
B|-------------------------------------------------|
G|--4--4--4--4--4--4--4--4--4--4--4--4--4--4--4--4-|
D|--4--4--4--4--4--4--4--4--4--4--4--4--4--4--4--4-|
A|--2--2--2--2--2--2--2--2--2--2--2--2--2--2--2--2-|
E|-------------------------------------------------| x 1


Chorus


e|-------------------------------------------------|
B|-------------------------------------------------|
G|--2--2--2--2--2--2--2--2-------------------------|
D|--2--2--2--2--2--2--2--2--2--2--2--2--2--2--2--2-|
A|--0--0--0--0--0--0--0--0--2--2--2--2--2--2--2--2-|
E|--------------------------0--0--0--0--0--0--0--0-|

e|-------------------------------------------------|
B|-------------------------------------------------|
G|--4--4--4--4--4--4--4--4--4--4--4--4--4--4--4--4-|
D|--4--4--4--4--4--4--4--4--4--4--4--4--4--4--4--4-|
A|--2--2--2--2--2--2--2--2--2--2--2--2--2--2--2--2-|
E|-------------------------------------------------| x 2




e|-------------------------------------------------|
B|-------------------------------------------------|
G|--------2--2--2--2--2--2-------------------------|
D|-6--6---2--2--2--2--2--2--2--2--2--2--2--2--2--2-|
A|-6--6---0--0--0--0--0--0--2--2--2--2--2--2--2--2-|
E|-4--4---------------------0--0--0--0--0--0--0--0-|

e|-------------------------------------------------|
B|-------------------------------------------------|
G|--4--4--4--4--4--4--4--4--4--4--4--4--4--4--4--4-|
D|--4--4--4--4--4--4--4--4--4--4--4--4--4--4--4--4-|
A|--2--2--2--2--2--2--2--2--2--2--2--2--2--2--2--2-|
E|-------------------------------------------------| x 1




e|-------------------------------------------------|
B|-------------------------------------------------|
G|-------------------------------------------------|
D|-------------------------------------------------|
A|--7--7--7--7--7--7--7--7--6--6--6--6--6--6--6--6-|
E|--4--4--4--4--4--4--4--4--4--4--4--4--4--4--4--4-|

e|-------------------------------------------------|
B|-------------------------------------------------|
G|-------------------------------------------------|
D|--7--7--7--7--7--7--7--7--9--9--9--9--9--9--9--9-|
A|--7--7--7--7--7--7--7--7--9--9--9--9--9--9--9--9-|
E|--5--5--5--5--5--5--5--5--7--7--7--7--7--7--7--7-| x 1


Bridge:


e|--11---------------------/12---------------------|
B|-------------------------------------------------| Let ring then Slide
G|-------------------------------------------------|
D|-------------------------------------------------|
A|-------------------------------------------------|
E|-------------------------------------------------|

With Delay:

e|-------------------------------------------------|
B|-------------------------------------------------|
G|--8-----------------------9----------------------|
D|-------------------------------------------------|
A|--6-----------------------7----------------------|
E|-------------------------------------------------|

Repeat with following riff over top, plam muted:

e|-------------------------------------------------|
B|-------------------------------------------------|
G|-------------------------------------------------|
D|--------6--------4--------7--------4--------6----|
A|--4--4-----4--4-----4--4-----4--4-----4--4-------|
E|-------------------------------------------------|

e|-------------------------------------------------|
B|-------------------------------------------------|
G|-------------------------------------------------|
D|--------6--------4--------1--1--1--2--2--2--1----|
A|--0--0-----0--0-----0--0--2--2--2--2--2--2--2----|
E|-------------------------------------------------|

No longer muted:

e|-------------------------------------------------|
B|-------------------------------------------------|
G|-------------------------------------------------|
D|--------6--------4--------7--------4--------6----|
A|--4--4-----4--4-----4--4-----4--4-----4--4-------|
E|-------------------------------------------------|

Muted:
e|-------------------------------------------------|
B|-------------------------------------------------|
G|-------------------------------------------------|
D|--------6--------4--------1--1--1--2--2--2--1--1-|
A|--0--0-----0--0-----0--0--2--2--2--2--2--2--2--2-|
E|-------------------------------------------------|


e|-------------------------------------------------|
B|-------------------------------------------------|
G|-------------------------------------------------|
D|-------------------------------------------------|
A|--1--2--2--2--1--1--2--2--1--1--1--2--2--2--1--1-|
E|--2--2--2--2--2--2--2--2--2--2--2--2--2--2--2--2-|

e|-------------------------------------------------|
B|-------------------------------------------------|
G|-------Pick--------------------------------------|
D|-------Slide-------------------------------------|
A|--1--1-------------------------------------------|
E|--2--2-------------------------------------------|


Chorus

e|-------------------------------------------------|
B|-------------------------------------------------|
G|--2--2--2--2--2--2--2--2--2----------------------|
D|--2--2--2--2--2--2--2--2--2--2--2--2--2--2--2--2-|
A|--0--0--0--0--0--0--0--0--2--2--2--2--2--2--2--2-|
E|--------------------------0--0--0--0--0--0--0--0-|

e|-------------------------------------------------|
B|-------------------------------------------------|
G|--4--4--4--4--4--4--4--4--4--4--4--4--4--4--4--4-|
D|--4--4--4--4--4--4--4--4--4--4--4--4--4--4--4--4-|
A|--2--2--2--2--2--2--2--2--2--2--2--2--2--2--2--2-|
E|-------------------------------------------------| x 2




e|-------------------------------------------------|
B|-------------------------------------------------|
G|--------2--2--2--2--2--2-------------------------|
D|-6--6---2--2--2--2--2--2--2--2--2--2--2--2--2--2-|
A|-6--6---0--0--0--0--0--0--2--2--2--2--2--2--2--2-|
E|-4--4---------------------0--0--0--0--0--0--0--0-|

e|-------------------------------------------------|
B|-------------------------------------------------|
G|--4--4--4--4--4--4--4--4--4--4--4--4--4--4--4--4-|
D|--4--4--4--4--4--4--4--4--4--4--4--4--4--4--4--4-|
A|--2--2--2--2--2--2--2--2--2--2--2--2--2--2--2--2-|
E|-------------------------------------------------|


e|-------------------------------------------------|
B|-------------------------------------------------|
G|-------------------------------------------------|
D|-------------------------------------------------|
A|--7--7--7--7--7--7--7--7--6--6--6--6--6--6--6--6-|
E|--4--4--4--4--4--4--4--4--4--4--4--4--4--4--4--4-|

e|-------------------------------------------------|
B|-------------------------------------------------|
G|-------------------------------------------------|
D|--7--7--7--7--7--7--7--7--9--9--9--9--9--9--9--9-|
A|--7--7--7--7--7--7--7--7--9--9--9--9--9--9--9--9-|
E|--5--5--5--5--5--5--5--5--7--7--7--7--7--7--7--7-|

e|--0--|
B|--0--|
G|--1--|
D|--2--| Let Ring
A|--2--|
E|--0--|


Lyrics:

I've got a dying urge to feel the way you do,
Too close for comford bed, and breakfast in a spoon.
The shortest breath of your young life,
A long walk home in friday night,
You made, one last stop at the store.

So close to perfect, swear to hell, thought it was you,
Well this bouncing baby boy now's turning baby blue.
I've got your pictures on my walls,
I've got a long list of calls, I must make,
To your existing family.

You had 9 lives and one by one you chewed 'em up.
Your final coffin nail's been driven far too much.
This won't take long, you said, I'm not going far.
Go wait in the car, go wait in the car.

I often wonder what it feels like to be you,
A mess like this stuck on your hands with crazy glue,
Ran out of time, no kiss goodbye,
I wish I could learn to let this sleeping dog die,
Without lying to myself.

You had 9 lives and one by one you chewed 'em up.
Your final coffin nail's been driven far too much.
This won't take long, you said, I'm not going far.
Go wait in the car, go wait in the car.

You had 9 lives and one by one you chewed 'em up.
Your final coffin nail's been driven far too much.
This won't take long, you said, I'm not going far.
Go wait in the car, go wait in the car.

Thats the lot!!! Any problems, listen to the recording.

ENJOY!!!