Alkaline Trio — Cooking Wine

На этой странице Вы можете ознакомиться с 2 версиями подбора аккордов для гитары к песне "Cooking Wine" группы (исполнителя) "Alkaline Trio".

Alkaline Trio - Cooking Wine
Tabbed By: PiP
EMail: pipbeast22@aol.com


Intro
G--------------------
D---0-2-3------------
A---------0---00-----
E-----------------0--

End of Intro/Verse

G-----------------
D-----------------
A-----------------
E-3-3-3-2--3-3-0--
ALKALINE TRIO-COOKING WINE
Tabbed By Ben H (PunkAsPhuck)

intro / verse
e|------------------------------------------------------------------------
B|------------------------------------------------------------------------
G|--7----------------------7----------------------------------------------
D|--7--7--5---5---5--------7--7-------4-4--5------------------------------
A|-5--7--5-/-4--5--------5--7-------4-4--5-------------------------------
E|-----5--3---3---3-----------5-------2-2--3------------------------------

intro 2
e|------------------------------------------------------------------------
B|------------------------------------------------------------------------
G|--7---------------------------------------------------------------------
D|--7------7---------------5----------------------------------------------
A|--5------7---------------5----------------------------------------------
E|---------5---------------3----------------------------------------------

chorus
e|------------------------------------------------------------------------
B|------------------------------------------------------------------------
G|--7-7-7-7--------------------7-7-7-7----------9-9-9-9-------------------
D|--X-X-X-X--------------------7-7-7-7----------9-9-9-9-------------------
A|--5-5-5-5--------------------5-5-5-5----------7-7-7-7-------------------
E|------------------------------------------------------------------------