Alkaline Trio — Cop

COP - Alkaline Trio


By: Zac (ladyzman45@aol.com)

Intro: just pick scrape (listen to the cd for how long)
e|---------------------------------------------------------------------------
B|---------------------------------------------------------------------------
G|---------------------------------------------------------------------------
D|---------------------------------------------------------------------------
A|---------------------------------------------------------------------------
E|---------------------------------------------------------------------------

Verse
e|---------------------------------------------------------------------------
B|---------------------------------------------------------------------------
G|--------------------------------------------------------------------------- 2x
D|-7-7-------7-7-------7-7-------7-7-------6-6-6-6-6-6-6-6-------------------
A|-7-7-------7-7-------7-7-------7-7-------6-6-6-6-6-6-6-6-------------------
E|-5-5-------5-5-------5-5-------5-5-------4-4-4-4-4-4-4-4-------------------

Chorus (not actual rhythm)
e|---------------------------------------------------------------------------
B|---------------------------------------------------------------------------
G|----------------7----11---9----7------------------------------------------- 2x
D|-7----4----2----7----11---9----7-------------------------------------------
A|-7----4----2----5----9----7----5-------------------------------------------
E|-5----2----0---------------------------------------------------------------

Repeat verse 2x
e|---------------------------------------------------------------------------
B|---------------------------------------------------------------------------
G|---------------------------------------------------------------------------
D|---------------------------------------------------------------------------
A|---------------------------------------------------------------------------
E|---------------------------------------------------------------------------

Repeat Chorus 2x
e|---------------------------------------------------------------------------
B|---------------------------------------------------------------------------
G|---------------------------------------------------------------------------
D|---------------------------------------------------------------------------
A|---------------------------------------------------------------------------
E|---------------------------------------------------------------------------

Outro (not actual rhythm)
e|---------------------------------------------------------------------------
B|-10------------------------------------------------------------------------
G|-9----9----9----7----6-----------------------------------------------------
D|-7----x----9----7----6-----------------------------------------------------
A|------7----7----5----4-----------------------------------------------------
E|---------------------------------------------------------------------------

Then end on
e|---------------------------------------------------------------------------
B|---------------------------------------------------------------------------
G|-4----2--------------------------------------------------------------------
D|-4----2--------------------------------------------------------------------
A|-2----0--------------------------------------------------------------------
E|---------------------------------------------------------------------------