Alkaline Trio — Crawl

this is a good song, alkaline trio rules, so go out and buy from here to infirmary
(which this is on)

the only symbol that i use in this tab is ~ which means let it ring out

standard tuning (low-high) EADGBe

intro
{a}
E----------------------------------------
B----------------------------------------
G----------------------------------------
D--6-6-6-6-6-6-6-6--4-4-4-4-2-2-2-2------
A--4-4-4-4-4-4-4-4--0-0-0-0-0-0-0-0------
D----------------------------------------
{b}
E------------------------------------------
B------------------------------------------
G------------------------------------------
D--4-4-4-4-4-4-4-4--6-6-4-4-1-1-2-2--------
A--2-2-2-2-2-2-2-2--0-0-0-0-0-0-0-0--------
E------------------------------------------
{c}
E----------------------------------------
B----------------------------------------
G----------------------------------------
D--6-6-6-6-6-6-6-6--4-4-4-4-2-2-2-2--0~--
A--4-4-4-4-4-4-4-4--0-0-0-0-0-0-0-0--2~--
E------------------------------------0~--

play A&B twice, then go on to finish it with C once