Alkaline Trio — Cringe

На этой странице Вы можете ознакомиться с 3 версиями подбора аккордов для гитары к песне "Cringe" группы (исполнителя) "Alkaline Trio".

Guitar plays intro alone bass only plays one note 
G--
D--
A--
E-8


INTRO/VERSE END OF VERSE
G--------- G--------------------------------------
D--------- D--------------------------------------
A-----7788 A-1212121212--1212121212-101010-8888888
E88888---- E--------------------------------------

work out rythm and number of times, doubles up as intro
second time around.Keep in time with the guitar.

PRE CHORUS
G----------------------------
D----------------------------
A-0-----3-5------------------
E-----0-----1---1-33333333333
x2

INTROx4
VERSEX2
END OF VERSEX1
INTROX2
END OF VERSEX1

BRIDGE
G-------------------------------------------
D-------------------------------------------
A---------------------1010101010108887775550
E-88888888888888877777----------------------
x2

OUTRO/BRIDGE 2
G-------------------------------------------
D-------------------------------------------
A-------------------------------------------
E-88888888888888877888888888888888778887788-

THATS THE GENERAL NOTES FOR THE LAST BIT BUT U GOTTA LISTEN
FOR TIMING AND STUFF, THE FINAL BIT IS JUST THE END OF VERSE, WITH PAUSES
U JUST GOTTA LISTEN, banny...
Band - Alkaline Trio
Song - Cringe
Album -Goddamnit
Tabbed By - Meeeee

Intro--- just indicate witch strings to ring/mute

G------5--------5---
Author/Artist: Alkaline Trio
Title: Cringe
Album: Goddamnit
Transcribed by: Jim Taone
Email: j_bro124@hotmail.com

Cringe is the opener off of Goddamnit, and
a great song; simple, quick, to the point...

enjoy,
jim


Intro:
------------------------------------------------------|
------------------------------------------------------|
--------------10-10-10-10----------------10-10-10-10--|
-10-10-10-10--10-10-10-10---10-10-10-10--10-10-10-10--|
-10-10-10-10--7--7--8--8----10-10-10-10--7--7--8--8---|
-8--8--8--8-----------------8--8--8--8----------------|


Verse:
---------------------------------|
---------------------------------|
--------------------10-10-10-10--|
-10-10-10-10-10-10--10-10-10-10--|
-10-10-10-10-10-10--7--7--8--8---|
-8--8--8--8--8--8----------------|


Pre-chorus:
--------------------------------|
-1-1-1-1-0-1-0---0-0-0-0-1-3-1--|
-2-2-2-2-2-2-2---2-2-2-2-2-2-2--|
-2-2-2-2-2-2-2---2-2-2-2-2-2-2--|
-0-0-0-0-0-0-0---0-0-0-0-0-0-0--|
--------------------------------|


Pre-chorus 2:
-------------------|
-------------------|
-------------------|
-3-3-3-3-3-3----5--|
-3-3-3-3-3-3----5--|
-1-1-1-1-1-1----3--|


Chorus:
-----------------------------|
-----------------------------|
-2-2-------------------------|
-2-2----2-2-----3-3-----5-5--|
-0-0----2-2-----3-3-----5-5--|
--------0-0-----1-1-----3-3--|


Interlude:
-------------------------------------------------------|
-------------------------------------------------------|
-x--5-5-5-5-2-2-2-2--12-12-12-12--10-10-10-9-9-7-7-5--|
-x--5-5-5-5-2-2-2-2--x--x--x--x---x--x--x--x-x-x-x-x--|
-x--3-3-3-3-0-0-0-0--10-10-10-10--8--8--8--7-7-5-5-3--|
-------------------------------------------------------|


Chord used for post interlude: (also song ends on this chord)
-----|
-----|
-5---|
-5---|
-3---|
-----|


Songflow:
Intro 2x
Verse 2x
Pre-chorus 1
Intro
Verse
Pre-chorus 1
Pre-chorus 2
Chorus 2x
Intro 2x
Verse 2x
Pre-chorus 1
Verse 2x
Pre-chorus 1
Interlude 2x
Post interlude chord play on-time
Pre-chorus 1
Pre-chorus 2
End with above chord

Questions, comments, corrections e-mail me at: j_bro124@hotmail.com