Alkaline Trio — Emma

На этой странице Вы можете ознакомиться с 2 версиями подбора аккордов для гитары к песне "Emma" группы (исполнителя) "Alkaline Trio".

Band:Alkaline Trio
Song:Emma
Tabbed by: Reed
Tuning: Standard

This is an awesome song off their new cd, Good Mourning.


Intro
E---------------------------
B---------------------------
G-------------2----4--------
D---2---------2----4--------
A---2---------0----2--------
E---0-----------------------


Verse (Palm Muted)
E--------------------------------------------------------
B--------------------------------------------------------
G----------------------22222222---44444444---------------
D---2222222222222222---22222222---44444444---------------
A---2222222222222222---00000000---22222222---------------
E---0000000000000000-------------------------------------

Chorus
E--------------------------------------------------------
B--------------------------------------------------------
G---66666666--------------99999999-----------------------
D---66666666---77777777---99999999---99999999------------
A---44444444---77777777---77777777---99999999------------
E--------------55555555--------------77777777------------

Bridge
E--------------------------------------------------------
B--------------------------------------------------------
G----------------------22222222---44444444---------------
D---2222222222222222---22222222---44444444---------------
A---2222222222222222---00000000---22222222---------------
E---0000000000000000-------------------------------------
-------------------------------------------------------------------------------
EMMA- Alkaline Trio
-------------------------------------------------------------------------------

Tabbed By : Peter Mancina
e-mail: Skatrm4@aol.com
This is a great song by a great band. Mikels HOt

Intro(x2)
G|---------------------------------------------------------------------------
D|---------------------------------------------------------------------------
A|-----------------------0-2-4-5-4-7-----------------------------------------
E|-0-2-4-5-4--0-2-4-5-4---------------0-2-4----------------------------------


Verse(x2)
G|---------------------------------------------------------------------------
D|---------------------------------------------------------------------------
A|----0(x4)---2(x4)---7(x8)---4(x4)----0(x4)---------------------------------
E|-0(x8)---------------------------------------------------------------------


Chorus(x2)
G|---------------------------------------------------------------------------
D|---------------------------------------------------------------------------
A|-4(x8)----------7(x8)------------------------------------------------------
E|-------5(x8)------------7(x8)----------------------------------------------

Bridge(x2)
G|---------------------------------------------------------------------------
D|---------------------------------------------------------------------------
A|-----------------------0-2-4-5-4-7-----------------------------------------
E|-0-2-4-5-4--0-2-4-5-4---------------0-2-4----------------------------------


Outro Chorus(x4)
G|---------------------------------------------------------------------------
D|---------------------------------------------------------------------------
A|-4(x8)----------7(x8)------------------------------------------------------
E|-------5(x8)------------7(x8)----------------------------------------------

Outro(x4)
G|---------------------------------------------------------------------------
D|---------------------------------------------------------------------------
A|-----------------------0-2-4-5-4-7-----------7-----------------------------
E|-0-2-4-5-4--0-2-4-5-4---------------0-2-4----------------------------------

The intro is not accurate, but if you want to play something that sounds like it.