Alkaline Trio — Every Thug Needs A Lady

На этой странице Вы можете ознакомиться с 3 версиями подбора аккордов для гитары к песне "Every Thug Needs A Lady" группы (исполнителя) "Alkaline Trio".

Every Thug Needs a Lady Bass Tab - Alkaline Trio

From Album: Good Mourning
Tabbed By: Daniel J (thedj28@btopenworld.com)

The bass pretty much follows the guitar, apart from the intro:



Intro

G---------------------------------------------------------------------------------------¦
D---------------------------------------------------------------------------------------¦
A---------0000-0---2-3-2-0---------33333333---------------------------------------------¦ (x2)
E--3333-3------------------0000-0-------------------------------------------------------¦



Verse

(I know its dark here..)

G---------------------------------------------------------------------------------------¦
D---------------------------------------------------------------------------------------¦
A-------------------------------33333333----------------55555555--3333333333333333------¦ (x2)
E-33333333--55555555--00000000----------------33333333----------------------------------¦


Chorus

(Its nothing i'll forget..)

G---------------------------------------------------------------------------------------¦
D---------------------------------------------------------------------------------------¦
A--55555--3333333333--55555--3333333333--55555555-3333-2222----------33333-55555--------¦
E-----------------------------------------------------------00000000--------------------¦

G--------------------------------------------------¦
D--------------------------------------------------¦
A-------55555------------33333-22222-00000-222-333-¦
E--33333------0000000000---------------------------¦

G----------------------------------------------¦
D----------------------------------------------¦
A--------55555-------33333-22222 00000 222 333-¦
E--33333-------00000---------------------------¦


repeat Intro

repeat Verse

repeat Chorus


Fast Intro

G---------------------------------------------------------------------------------------¦
D---------------------------------------------------------------------------------------¦
A--------------------0000000022332200------------------3333333333333333-----------------¦ (x2)
E--3333333333333333-------------------0000000000000000----------------------------------¦


Outro

(So go plug in..)

G---------------------------------------------------------------------------------------¦
D---------------------------------------------------------------------------------------¦
A----------55555--3333333333---------55555--3333333333---------55555--33333--55555------¦
E---33333---------------------33333---------------------33333---------------------------¦

G---------------------------------------------------------------------------------------¦
D---------------------------------------------------------------------------------------¦
A----------55555--33333--55555----------------------------------------------------------¦
E---33333-----------------------3-------------------------------------------------------¦
Every Thug Needs A Lady - Alkaline Trio

From Album: Good Mourning
Tabbed by: Daniel J (thedj28@btopenworld.com)

Fairly easy song to play but can get a bit tricky to follow in the chorus
if you dont know where you are goin. You will have to listen to the song to get
the strumming parts.

Chords Used:

G(open) Em C D A A(O) B G E(bar)



e 3 0 3 x x x x x x
B 3 0 5 7 x 2 4 x x
G 0 0 5 7 7 2 4 5 2
D 0 2 5 7 7 2 4 5 2
A 2 2 3 5 7 0 2 5 2
E 3 0 x x 5 0 X 3 0


Intro:
-----
G(open), Em, G(open), Em, G(open), Em, C (x2)



Verse1
------
(..C) G A
I know its dark here, you know that im scared too,

E C
for some reason right now, of everything but you.

G D C
Right now you're all that i recognise.

(..C) G A
You know i came here, when i needed your soft voice.

E C
I needed to hear something, that sounded like an answer

G D C
and i wait here and sometimes i get one.


Chorus
------
D C
Its nothing i'll forget, when the moon gets tired

D C
you are stuck to me everyday,

D C B E C D G D E
believe in what i am because its all i have today, and tomorrow who knows where we'll be.

C B A(O) B C G D E C
From here i can hardly see a thing, but i will follow anyone who brings me to you,

B A(O) B C
for now, forever, for on and on and on


----> Intro (x2)


Verse2
------

(..C) G A
You know it starts here, outside waiting in the cold.

E C
Kiss me once in the snow, i swear it never gets old

G D C
and i will promise you, i can make it warmer next year.

(..C) G A
You know i came here, when i needed your soft voice.

E c
I needed to hear something, that sounded like an answer

G D C
now i stay here and everyday i get one.



----> Chorus
----> Intro (x2 strummed fully)

Outro
-----

(..C) G D C
So go plug in your electric blanket,

G D C
we can stay in 'till our southern summer wedding day

G D C D G D C D Finish on G
go plug in your electric blanket you can stay here.
'Every Thug Needs A Lady' - Alkaline Trio

Intro/Main Riff 2x
|-3333-x-3---0000-x-0---0000-x-0------------|
|-3333-x-3---3333-x-3---3333-x-3------------|
|-0000-x-0---2222-x-2---0000-x-0---55555555-|
|-0000-x-0---2222-x-2---2222-x-2---55555555-|
|-2222-x-2---0000-x-0---2222-x-2---33333333-|
|-3333-x-3--------------0000-x-0------------|


Verse (all palm muted) 2x ** ** **
|-------------------------------------|-----------------------------------|
|-------------------------------------|-----------------------------------|
|----------22222222----------55555555-|----------77777777-555555555555555-|
|-55555555-22222222-22222222-55555555-|-55555555-77777777-555555555555555-|
|-55555555-00000000-22222222-33333333-|-55555555-55555555-333333333333333-|
|-33333333----------00000000----------|-33333333--------------------------|


Prechorus
|-------------------------| |--------------------0-------------|
|-------------------------| |--------------------0-------------|
|-77777---------55555555--| 2x |-77777777-5555-4444-0---5555-7777-|
|-77777-*pause*-55555555--| |-77777777-5555-4444-2---5555-7777-|
|-55555---------33333333--| |-55555555-3333-2222-2---3333-5555-|
|-------------------------| |--------------------0-------------|


Chorus 2x
|-----------------------------------------------|
|-----------------------------------------------|
|------5555------------5555-----------5555-7777-|
|-5555-5555-22222222---5555-5555-7777-5555-7777-|
|-5555-3333-22222222---3333-5555-7777-3333-5555-|
|-3333------00000000--------3333-5555-----------|


~Intro/Main Riff 2x


~Verse (palm muted, accent where marked '*') 2x


~Prechorus


~Chorus 2x


~Main Riff 2x


Outro
|--------------------| |---------------------|
|--------------------| |---------------------|
|------7777-55555555-| 2x |------7777-5555-7777-| 2x
|-5555-7777-55555555-| |-5555-7777-5555-7777-|
|-5555-5555-33333333-| |-5555-5555-3333-5555-|
|-3333---------------| |-3333----------------|

End
|---|
|---|
|---|
|-5-|
|-5-|
|-3-|