Alkaline Trio — Fatally Yours

На этой странице Вы можете ознакомиться с 2 версиями подбора аккордов для гитары к песне "Fatally Yours" группы (исполнителя) "Alkaline Trio".

Alkaline Trio - Fatally Yours

Quite a short song, but still good. Another off the new album, out today.
Lots of octaves used in this song, which they seem to like to use and prepare
for a bit of up and down strumming, but it's not overly fast.
Standard tuning, enjoy

Intro (x2)
|-----------------------------------------------------------------
|-----------------------------------------------------------------
|-6-6-6-6-6-6-6-6-6-6-6-6-6-6-6-6-7-7-7-7-7-7-7-7-7-7-7-7-7-7-9-7-
|-x-x-x-x-x-x-x-x-x-x-x-x-x-x-x-x-x-x-x-x-x-x-x-x-x-x-x-x-x-x-x-x-
|-4-4-4-4-4-4-4-4-4-4-4-4-4-4-4-4-5-5-5-5-5-5-5-5-5-5-5-5-5-5-7-5-
|-----------------------------------------------------------------

Verse
|-----------------------------------------------------------------
|-----------------------------------------------------------------
|-6-6-6-6-6-6-6-6-6-6-6-6-6-6-6-6-7-7-7-7-7-7-7-7-7-7-7-7-7-7-7-7-
|-x-x-x-x-x-x-x-x-x-x-x-x-x-x-x-x-x-x-x-x-x-x-x-x-x-x-x-x-x-x-x-x-
|-4-4-4-4-4-4-4-4-4-4-4-4-4-4-4-4-5-5-5-5-5-5-5-5-5-5-5-5-5-5-5-5-
|----------------------------------------------------------------- x2

|--------------------------------------------
|--------------------------------------------
|-7-------------------------9----------------
|-7-------------------------9----------------
|-5-------------------------7----------------
|--------------------------------------------
I answered every question, does that mean...

Intro (x1)
Verse (both parts, same amount played)

Chorus
|---------------------------------------
|---------------------------------------
|-6-6-6-6-6-6-6-6-7--7--7--7---6-6-4--2-
|-x-x-x-x-x-x-x-x-x--x--x--x---x-x-x--2-
|-4-4-4-4-4-4-4-4-5--5--5--5---4-4-2--0-
|---------------------------------------
kill me 'n' if you couldn't

|------------------------------------------
|------------------------------------------
|---------------------------9------------7-
|-7-------------------------9------------7-
|-7-------------------------7------------5-
|-5---------------------------------------- x4
If it's ok, I've just got ma sh*t in me

Intro (x2)

Verse
|-------------------
|-------------------
|-6~---7~---6~---7~-
|-x----x----x----x--
|-4~---5~---4~---5~-
|-------------------

|-----------------------------------------------------------------
|-----------------------------------------------------------------
|-7---------------------------9-----------------------------------
|-7---------------------------9-----------------------------------
|-5---------------------------7-----------------------------------
|-----------------------------------------------------------------
I had a friend that needed me, made a wish that won't come true

Chorus

Outro
|--------------------------------------------------
|--------------------------------------------------
|-6-6-6-6-7-7-7-6-6-6-6-6-6-6-6-6-7--7--7--7--7--7-
|-x-x-x-x-x-x-x-x-x-x-6-6-6-6-6-6-7--7--7--7--7--7-
|-4-4-4-4-5-5-5-4-4-4-4-4-4-4-4-4-5--5--5--5--5--5-
|--------------------------------------------------
I'm fatally yours

any questions? andrewbiles@hotmail.com
Intro/Verse
|--------------------------------|
|--------------------------------|
|66666666666666667777777777779977|
|77777777777777777777777777777777|
|00000000000000000000000000000000|
|--------------------------------|

End of Verse
|--------------------------------|
|--------------------------------|
|----------------9999999999999999|
|77777777777777777777777777777777|
|55555555555555557777777777777777|
|5555555555555555----------------|

Chorus
|--------------------------------|
|--------------------------------|
|----------------9999999977777777|
|77777777777777777777777755555555|
|55555555555555557777777755555555|
|5555555555555555----------------|

john