Alkaline Trio — Fuck You Aurora

На этой странице Вы можете ознакомиться с 3 версиями подбора аккордов для гитары к песне "Fuck You Aurora" группы (исполнителя) "Alkaline Trio".

justin daniel guitarist from-februarys fall

G A B C
my my what a mess we've made of our pretty little heads these days
G A B C
It appears a violent storms past through here recently
G A B C
best wishes have been made for you, you never had no say its true
G A B C
you have to be the cutest gravedigger i've ever seen


(before you play the verse you play the chords above twice through)

D c D
and all your lonely nights in the city of lights are much like
c d G
all these crowded bars i so often find my stupid self going through


(play intro twice more)

G a b C
my my what a mess we've made of our pretty little heads these days
G A B C
It appears a violent storms past through her recently
G A
letters ment to be sent have been torn,
B C
the phone lies off the the hook on the floor
G A
All these i'm sorrys and i miss yous are usless
B C
i fucked this one up long a go


play bridge(pre chorus)

G C
Fuck you aurora
D C
you took my only friend
G C
and although its all my fault
D C
im blaming myself had it come to an end


play the last verse same as other two

repeat chorus once and pre-chorus once
FUCK YOU AURORA - Alkaline Trio

By: Jason Aarts-bassist from Until It Falls

> Strum

Intro:
Slide down to the three on the E string. And then:
G|---------------------------------------------------------------------
D|---------------------------------------------------------------------
A|---------0-2>---3>---------2>-3>-------------------------------------
E|-3>--------------------3>--------------------------------------------

Verse:
G|---------------------------------------------------------------------
D|------55---------------7799------------------------------------------
A|----------------00-0-------------22-2222-33-3333---------------------
E|--33-3--33-----------------------------------------------------------

Pre Chorus:
G|---------------------------------------------------------------------
D|---------------------------------------------------------------------
A|---5>-------3>-------------------------------------------------------
E|---------------------------------------------------------------------

Chorus:
G|---------------------------------------------------------------------
D|---------------------------------------------------------------------
A|-----------3>------5>---------3>-------------------------------------
E|-----3>--------------------------------------------------------------

Bit after chorus:
G|---------------------------------------------------------------------
D|---------------------------------------------------------------------
A|-----5>-----3>-------------------------------------------------------
E|---------------------------------------------------------------------

I'm pretty sure this is right. Just listen to the song for the timing. It's
a good tune so keep rocking baby.
-------------------------------------------------------------------------------
Alkaline Trio - Fuck You Aurora
-------------------------------------------------------------------------------
Tabbed by:Mikey G
Email:Americana1987@hotmail.com

Tuning:Standard

Intro/Verse

e|---------------------------------------------------------------------------|
B|---------------------------------------------------------------------------|
G|-------------------44444444-55555555---------------------------------------|
D|-55555555-77777777-44444444-55555555---------------------------------------|
A|-55555555-77777777-22222222-33333333---------------------------------------|
E|-33333333-55555555---------------------------------------------------------|

Bridge

e|---------------------------------------------------------------------------|
B|--------And all your lonely nights in the city of lights are much----------|
G|-7-7-7-7-7-7-7-7-7-7-7-7-7-7-7-7-5-5-5-5-5-5-5-5-5-5-5-5-5-5-5-5-----------|
D|-7-7-7-7-7-7-7-7-7-7-7-7-7-7-7-7-5-5-5-5-5-5-5-5-5-5-5-5-5-5-5-5-----------|
A|-5-5-5-5-5-5-5-5-5-5-5-5-5-5-5-5-3-3-3-3-3-3-3-3-3-3-3-3-3-3-3-3-----------|
E|---------------------------------------------------------------------------|

e|---------------------------------------------------------------------------|
B|-like all these crowded bars i find my stupid self stumbling through-------|
G|-7-7-7-7-7-7-7-7-7-7-7-7-7-7-7-7-5-5-5-5-5-5-5-5-5-5-5-5-5-5-5-5-----------|
D|-7-7-7-7-7-7-7-7-7-7-7-7-7-7-7-7-5-5-5-5-5-5-5-5-5-5-5-5-5-5-5-5-----------|
A|-5-5-5-5-5-5-5-5-5-5-5-5-5-5-5-5-3-3-3-3-3-3-3-3-3-3-3-3-3-3-3-3-----------|
E|---------------------------------------------------------------------------|

Chorus

e|--fuck you Aurora, you took my only friend---------------------------------|
B|---------------------------------------------------------------------------|
G|----------55555555-77777777-55555555---------------------------------------|
D|-55555555-55555555-77777777-55555555---------------------------------------|
A|-55555555-33333333-55555555-33333333---------------------------------------|
E|-33333333------------------------------------------------------------------|

e|--You won't catch me behind the wheel of a chrysler ever again-------------|
B|---------------------------------------------------------------------------|
G|----------555555555-----------5--------------------------------------------|
D|-55555555-555555555-555555555-5--------------------------------------------|
A|-55555555-333333333-555555555-3--------------------------------------------|
E|-33333333-----------333333333----------------------------------------------|

timing isn't perfect in places
=============================================================================