Alkaline Trio — Goodbye Forever

Artist:Alkaline Trio
Song:Goodbye Forever
Album:Alkaline Trio
By:Banny a.k.a Tsunami Bomb

ok people this is the mother of Alkaline Trio bass tabs, good luck with it,
hope it doesn't take you as long to learn it as it took me to tab it. later.

INTRO
G|---------------------------------------------------------------------------|
D|-x6/-----------6---6-------------------------------------------------------|
A|-----4-44-4444---4---4-----------------------------------------------------|
E|---------------------------------------------------------------------------|

VERSE FILL(In Verse)
G|---------6--------6-------------6-----|------------------------------------|
D|------976------976---------------6--6-|------------------------------------|
A|--0000-----0000------444444444-4---4--|-44-444-7-6-7976--------------------|
E|--------------------------------------|----------------97------------------|


PRE-CHORUS
G|---------------------------------------------------------------------------|
D|-------------------7766----------------------------------------------------|
A|-----------------00----99--997766------------------------------------------|
E|-7-77777777777777--------77------------------------------------------------|

CHORUS
G|---------------------------------------------------------------------------|
D|---------66--66--------------------------66-6-6----------------------------|
A|-44444444--44--44----------------44444444--4-4-----------------------------|
E|-----------------444444455555555/--------------55555555-7~-----------------|

FILL (After Chorus)
G|---------------------------------------------------------------------------|
D|---------------------------------------------------------------------------|
A|---------------------------------------------------------------------------|
E|-0000000000000000----------------------------------------------------------|

INTERLUDE
G|-------------------------6-------------------------------------------------|
D|---------------------------6---------4-44----/6--77666/11--7766/11---------|
A|-----------------44444444-4-4-2-2-222----2-22--00--------00----------------|
E|-0000000000000000----------------------------------------------------------|

INTERLUDE (CONTINUED)
G|---------4-1-----------------------------------------------h6---------h6---|
D|-----------------66---------------4-4//------1144-----7p6h7------7p6h7-----|
A|-------------4444--4/7767976--22-2-2---2-2-44-----0000-------0000----------|
E|-00000000-0-0---------------97---------------------------------------------|

INTERLUDE (CONTINUED)
G|-----------------------------------------------22--------------------------|
D|-------------------6------6------444----444--------------------------------|
A|-----2------2--44-4-4-44-4-4-22-2---22-2---00-0--0-000000000---------------|
E|-00-0-0-00-0-0-------------------------------------------------------------|

OUTRO
G|---------------------------------------------------------------------------|
D|---------------------------------------------------------------------------|
A|---------------------------------------------------------------------------|
E|-0~------------------------------------------------------------------------|