Alkaline Trio — Hell Yes

На этой странице Вы можете ознакомиться с 2 версиями подбора аккордов для гитары к песне "Hell Yes" группы (исполнителя) "Alkaline Trio".

-------------------------------------------------------------------------------
Hell Yes – Alkaline Trio
-------------------------------------------------------------------------------

Another song by the great Alkaline Trio! Enjoy!
KEY
*** = Palm Mute
~~~ = Let Ring

INTRO
e|---------------------------------------------------|
B|---------------------------------------------------|
G|---------------------------------------------------|
D|-999999-99-77-66-44-666666-99-77-66-44-66----------|
A|-777777-00-00-00-00-444444-00-00-00-00-00----------|
E|---------------------------------------------------|

VERSE
e|--------------------------------------------|
B|--------------------------------------------|
G|---------------4444444----------------------|
D|-2222222222222-4444444-7777777777777--------|
A|-2222222222222-2222222-7777777777777--------|
E|-0000000000000---------5555555555555--------|
************* ******* *************

POST VERSE
e|------------------------------------|
B|------------------------------------|
G|-44444444444444--22222222-----------|
D|-44444444444444--22222222-----------|
A|-22222222222222--00000000-----------|
E|------------------------------------|

CHORUS
e|---------------------------------------------------|
B|---------------------------------------------------|
G|-999999999999999999--6666666666--44444444444-------|
D|-999999999999999999--6666666666--44444444444-------|
A|-777777777777777777--4444444444--22222222222-------|
E|---------------------------------------------------|

BRIDGE
e|--------------------------------------|
B|--------------------------------------|
G|-22222222-44444444--------------------|
D|-22222222-44444444--------------------|
A|-00000000-22222222--------------------|
E|--------------------------------------|
******** *********

ENDING
e|-----------------------------|
B|-----------------------------|
G|-----------------------------|
D|-7-----2---------------------|
A|-7~~---2---------------------|
E|-5-----0---------------------|

INTRO x1 (clean)
INTRO x1 (Disrtorted)
VERSE x4
POST VERSE
INTRO x2
VERSE x4
POST VERSE
CHORUS x2
INTRO x2
VERSE x4
CHORUS x4
BRIDGE x4
POST VERSE
INTRO x2
CHORUS x4
ENDING
===============================================================================
Band: Alkaline Trio
Song: Hell Yes
Album: From Here to Infirmary
Tabbed by: Iwasjustcleaningitanditwentoff

This is another song from thwe new album and its one of the best ones.
Standard tunind (EADGBe) The B5 chord can be played how i have shown it
(x244xx) or as (799xxx) it doesnt really matter.

Intro

e|---------------------------------------------------------------------------------|
B|---------------------------------------------------------------------------------|
G|-9-9-9-9-9--14-14-14-14--13-13--11--13-13-13-13--16-16--14-14--13-13-11-11-11-11-|
D|-9-9-9-9-9--x--x--x--x---x--x---x---x--x--x--x---x--x---x--x---x--x--x--x--x--x--|
A|-7-7-7-7-7--12-12-12-12--11-11--9---11-11-11-11--14-14--12-12--11-11-9--9--9--9--|
E|---------------------------------------------------------------------------------|


Verse (listen to song to figure this bit out)

e|------------------------------------------------------------------------|
B|------------------------------------------------------------------------|
G|----------------------------------------4-4-4-4-------------------------|
D|---2-2-2-2-2-2-2-2-2-2-2-2-2-2-2-2-2----4-4-4-4----7-7-7-7-7-7-7-7-7----|
A|---2-2-2-2-2-2-2-2-2-2-2-2-2-2-2-2-2----2-2-2-2----7-7-7-7-7-7-7-7-7----|
E|---0-0-0-0-0-0-0-0-0-0-0-0-0-0-0-0-0---------------5-5-5-5-5-5-5-5-5----|
p.m. --------------------------------- ------- -----------------


Verse part 2

e|---------------------------------------------|
B|---------------------------------------------|
G|---4-4-4-4-----------------------------------|
D|---4-4-4-4-----7-7-7-7-7-7-7-7-7-------------|
A|---2-2-2-2-----7-7-7-7-7-7-7-7-7-------------|
E|---------------5-5-5-5-5-5-5-5-5-------------|


Chorus

e|--------------------------------------------------------------------------|
B|--------------------------------------------------------------------------|
G|---9-9-9-9-9-9-9-9-9-9-9-9-9-9-9-9-----6-6-6-6-6-6-6----4-4-4-4-4-4-------|
D|---9-9-9-9-9-9-9-9-9-9-9-9-9-9-9-9-----6-6-6-6-6-6-6----4-4-4-4-4-4-------|
A|---7-7-7-7-7-7-7-7-7-7-7-7-7-7-7-7-----4-4-4-4-4-4-4----2-2-2-2-2-2-------|
E|--------------------------------------------------------------------------|


Bridge

e|----------------------------------------|
B|----------------------------------------|
G|----------------------4-4-4-4-4-4-4-4-4-|
D|--7-7-7-7-7-7-7-7-7---4-4-4-4-4-4-4-4-4-|
A|--7-7-7-7-7-7-7-7-7---2-2-2-2-2-2-2-2-2-|
E|--5-5-5-5-5-5-5-5-5---------------------|
p.m.----------------- -----------------


End

e|-----------------------------------------|
B|-----------------------------------------|
G|-----------------------------------------|
D|-----7-(LR)------------7-7--2-(LR)-------|
A|-----7-(LR)------------7-7--2-(LR)-------|
E|-----5-(LR)------------5-5--0-(LR)-------|


Song order

Intro (clean)
Intro (distorted)
Verse x4
Verse part 2 x1
Intro x2
Verse x4
verse part 2 x1
Chorus x2
Intro x2
Verse x4
Verse part 2 x1
Chorus x2
Bridge x4
Bridge (no p.m) x1
Intro x2
Chorus x4
End