Alkaline Trio — I Lied My Face Off

На этой странице Вы можете ознакомиться с 2 версиями подбора аккордов для гитары к песне "I Lied My Face Off" группы (исполнителя) "Alkaline Trio".

INTRO/VERSE

G-------------------------------------------------------------
D-------------------------------------------------------------
A-7777777-999999999-1010101010101010--------------------------
E------------------------------------888888888877777777777777-


CHORUS

G----------------------------------
D----------------------------------
A-------2222222333333--------------
E-000000-------------3333223200000-


thats the whole sing basically u play the chorus for the IN LIKE AN EMPTY SETILE ROOM bit
Artist: Alkaline Trio
Song : I Lied My Face Off
Album : I Lied My Face Off
Transcribed by: SACI

Intro/Verse
e|------------------------------------------------------------|
B|------------------------------------------------------------|
G|---------------9-9-9-9-11-11-11-11-12-12-12-12-12-12-12-12--|
D|---------------9-9-9-9-11-11-11-11-12-12-12-12-12-12-12-12--|
A|---------------7-7-7-7-9--9--9--9--10-10-10-10-10-10-10-10--|
E|--3/23-----------------------------------------------------| Palm mute
during verses
e|-------------------------------------------|
B|-------------------------------------------|
G|-------------------------------------------|
D|--10-10-10-10-10-10-10-10-9-9-9-9-9-9-9-9--|
A|--10-10-10-10-10-10-10-10-9-9-9-9-9-9-9-9--|
E|--8--8--8--8--8--8--8--8--7-7-7-7-7-7-7-7--|

Chorus
e|-----------------------------------|
B|-----------------------------------|
G|------------------4-4-4-4-4-4-4-4--|
D|--2-2-2-2-2-2-2-2-4-4-4-4-4-4-4-4--|
A|--2-2-2-2-2-2-2-2-2-2-2-2-2-2-2-2--|
E|--0-0-0-0-0-0-0-0------------------|

e|-----------------------------------|
B|-----------------------------------|
G|--5-5-5-5-5-5-5-5------------------|
D|--5-5-5-5-5-5-5-5-5-5-5-5-4-4-4-4--|
A|--3-3-3-3-3-3-3-3-5-5-5-5-4-4-4-4--|
E|------------------3-3-3-3-2-2-2-2--|

1st Bridge:
e|-----------------------------------|
B|-----------------------------------|
G|------------------4-4--------------|
D|--2-2-------------4-4--------------| then pickslide
A|--2-2-------------2-2-------3/23--|
E|--0-0------------------------------|

2nd Bridge:
e|-----------------------------------|
B|-----------------------------------|
G|------------------4----------------|
D|--2---------------4---2-0----------|
A|--2---------------2-------3-23/2--|
E|--0--------------------------------|

Last Verse:
e|-----------------------------------|
B|-----------------------------------|
G|--9-9-9-9-9-9-9-9------------------|
D|--9-9-9-9-9-9-9-9-9-9-9-9-9-9-9-9--|
A|--7-7-7-7-7-7-7-7-9-9-9-9-9-9-9-9--| First bass then,
E|------------------7-7-7-7-7-7-7-7--| Palm mute during
first verses
e|-----------------------------------| then play normal
B|-----------------------------------|
G|--5-5-5-5-5-5-5-5-7-7-7-7-7-7-7-7--|
D|--5-5-5-5-5-5-5-5-7-7-7-7-7-7-7-7--|
A|--3-3-3-3-3-3-3-3-5-5-5-5-5-5-5-5--|
E|-----------------------------------|

End:
e|--------------------------------------------------------|
B|--------------------------------------------------------|
G|--4---------------5-------------------------------------|
D|--4---------------5----------------5------4------2------|
A|--2---------------3----------------5------4------2------|
E|-----------------------------------3------2------0------|
It's never fine when you go awaaaaaay


That's all the song punks any comments???

mail:infanticide_saci@yahoo.com or icq#:49077775