Alkaline Trio — Im Dying Tomorrow

ALKALINE TRIO-I'M DYING TOMORROW
Tabbed by Ben H. (PunkAsPhuck)
Standard Tuning
* - palm mute

CHORUS
e|---------------------------------------------------------------|
B|---------------------------------------------------------------|
G|----------------999999999999999--------------------------------|
D|--99999--88888--999999999999999--99999--88888--22222222222222--|
A|--99999--88888--777777777777777--99999--88888--22222222222222--|
E|--77777--66666-------------------77777--66666--00000000000000--|

e|---------------------------------------------------------------|
B|---------------------------------------------------------------|
G|----------------999999999999999--------------------------------|
D|--99999--88888--999999999999999--99999--88888---7---2----------|
A|--99999--88888--777777777777777--99999--88888---7---2----------|
E|--77777--66666-------------------77777--66666---5---0----------|

VERSE 1
e|---------------------------------------------------------------|
B|---------------------------------------------------------------|
G|--------------------------------------------9-----8----9---8---|
D|--9------------------------------------------------------------|
A|--9------------7777777777--------------7777---777---77---7-----|
E|--7-777777777--------------7777777777--------------------------|
********* ********** ********** **** *** ** *

e|---------------------------------------------------------------|
B|---------------------------------------------------------------|
G|---------------------------------------------------------------|
D|--9--9----------------------------------------------444444444--|
A|--9--9----------------------------------------------444444444--|
E|--7--7-7777777--6666666--5555555--00000000--22222222222222222--|
******* ******* ******* ******** ********

PRE-CHORUS
e|---------------------------------------------------------------|
B|---------------------------------------------------------------|
G|----------------999999999999999-----------------9999999999-----|
D|--999999999999--999999999999999--99999--888888--9999999999-----|
A|--999999999999--777777777777777--99999--888888--7777777777-----|
E|--777777777777-------------------77777--666666-----------------|

e|---------------------------------------------------------------|
B|---------------------------------------------------------------|
G|---------------------------------------------------------------|
D|--999999999--8888888888--77777777777--22222222222--44444444444-|
A|--999999999--8888888888--77777777777--22222222222--44444444444-|
E|--777777777--6666666666--55555555555--00000000000--22222222222-|

e|---------------------------------|
B|---------------------------------|
G|--999999999999999999999----------|
D|--XXXXXXXXXXXXXXXXXXXXX----------|
A|--777777777777777777777----------|
E|---------------------------------|

CHORUS
e|---------------------------------------------------------------|
B|---------------------------------------------------------------|
G|----------------999999999999999--------------------------------|
D|--99999--88888--999999999999999--99999--88888--22222222222222--|
A|--99999--88888--777777777777777--99999--88888--22222222222222--|
E|--77777--66666-------------------77777--66666--00000000000000--|

e|---------------------------------------------------------------|
B|---------------------------------------------------------------|
G|------------------999999999999999------------------------------|
D|--99999--88888--999999999999999--99999--88888---7---2----------|
A|--99999--88888--777777777777777--99999--88888---7---2----------|
E|--77777--66666-------------------77777--66666---5---0----------|

VERSE 2
e|---------------------------------------------------------------|
B|---------------------------------------------------------------|
G|--------------------------------------------9-----8----9---8---|
D|--9------------------------------------------------------------|
A|--9------------7777777777--------------7777---777---77---7-----|
E|--7-777777777--------------7777777777--------------------------|
********* ********** ********** **** *** ** *

e|---------------------------------------------------------------|
B|---------------------------------------------------------------|
G|---------------------------------------------------------------|
D|--9--9----------------------------------------------444444444--|
A|--9--9----------------------------------------------444444444--|
E|--7--7-7777777--6666666--5555555--00000000--22222222222222222--|
******* ******* ******* ******** ********

PRE-CHORUS
e|---------------------------------------------------------------|
B|---------------------------------------------------------------|
G|----------------999999999999999-----------------9999999999-----|
D|--999999999999--999999999999999--99999--888888--9999999999-----|
A|--999999999999--777777777777777--99999--888888--7777777777-----|
E|--777777777777-------------------77777--666666-----------------|

e|---------------------------------------------------------------|
B|---------------------------------------------------------------|
G|---------------------------------------------------------------|
D|--999999999--8888888888--77777777777--22222222222--44444444444-|
A|--999999999--8888888888--77777777777--22222222222--44444444444-|
E|--777777777--6666666666--55555555555--00000000000--22222222222-|

e|---------------------------------|
B|---------------------------------|
G|--999999999999999999999----------|
D|--XXXXXXXXXXXXXXXXXXXXX----------|
A|--777777777777777777777----------|
E|---------------------------------|

CHORUS
e|---------------------------------------------------------------|
B|---------------------------------------------------------------|
G|----------------999999999999999--------------------------------|
D|--99999--88888--999999999999999--99999--88888--22222222222222--|
A|--99999--88888--777777777777777--99999--88888--22222222222222--|
E|--77777--66666-------------------77777--66666--00000000000000--|

e|---------------------------------------------------------------|
B|---------------------------------------------------------------|
G|------------------999999999999999------------------------------|
D|--99999--88888--999999999999999--99999--88888---7---2--99------|
A|--99999--88888--777777777777777--99999--88888---7---2--99------|
E|--77777--66666-------------------77777--66666---5---0--77------|

Enjoy!