Alkaline Trio — Maybe Ill Catch Fire

Alkaline Trio - Maybe I'll Catch Fire
Tabbed By: Daniel Taylor
EMail: danielt88@hotmail.com


Moderate distortion, Standard Tuning (e B G D A E)

Intro

e|---------------------------------------------------------------------|
B|---------------------------------------------------------------------|
G|-5-5-5-5-5-5-5-5-----------------------------------------------------|
D|-5-5-5-5-5-5-5-5--5-5-5-5-5-5-5-5--7-7-7-7-7-7-7-7--5-5-5-5-5-5-5-5--|
A|-3-3-3-3-3-3-3-3--5-5-5-5-5-5-5-5--7-7-7-7-7-7-7-7--5-5-5-5-5-5-5-5--|
E|------------------3-3-3-3-3-3-3-3--5-5-5-5-5-5-5-5--3-3-3-3-3-3-3-3--|

e|--------------------------|
B|--------------------------|
G|---------10-10-10-10-10---|
D|-3-3-3-3--x--x--x--x--x---|
A|-3-3-3-3--8--8--8--8--8---|
E|-1-1-1-1------------------|

Verses (Palm Muted)

e|---------------------------------------------|
B|---------------------------------------------|
G|-10-10-10-10-10-10-10-10--9-9-9-9-9-9-9-9----|
D|-10-10-10-10-10-10-10-10--9-9-9-9-9-9-9-9----|
A|-8--8--8--8--8--8--8--8---7-7-7-7-7-7-7-7----|
E|---------------------------------------------|

Chorus

e|---------------------------------------------------------------------|
B|---------------------------------------------------------------------|
G|-5-5-5-5-5-5-5-5-----------------------------------------------------|
D|-5-5-5-5-5-5-5-5--5-5-5-5-5-5-5-5--7-7-7-7-7-7-7-7--5-5-5-5-5-5-5-5--|
A|-3-3-3-3-3-3-3-3--5-5-5-5-5-5-5-5--7-7-7-7-7-7-7-7--5-5-5-5-5-5-5-5--|
E|------------------3-3-3-3-3-3-3-3--5-5-5-5-5-5-5-5--3-3-3-3-3-3-3-3--|

e|---------------------------------------------------------------------|
B|---------------------------------------------------------------------|
G|--------------10-10-10-10-10-10--5-5-5-5-5-5-5-5--9-9-9-9--10-10-10--|
D|-3-3-3-3-3-3--x--x--x--x--x--x---5-5-5-5-5-5-5-5--x-x-x-x--x--x--x---|
A|-3-3-3-3-3-3--8--8--8--8--8--8---3-3-3-3-3-3-3-3--7-7-7-7--8--8--8---|
E|-1-1-1-1-1-1---------------------------------------------------------|

B|---------------------------------------------|
G|-9-9-9---------------------------------------|
D|-x-x-x--7-7-7-7-7-7-7-7--5-5-5-5-5-5-5-5-----|
A|-7-7-7--7-7-7-7-7-7-7-7--5-5-5-5-5-5-5-5-----|
E|--------5-5-5-5-5-5-5-5--3-3-3-3-3-3-3-3-----|

Bridge

e|----------------------------------------------------------------|
B|----------------------------------------------------------------|
G|--9-9-9-9-9-9-9-9--4-4-4--5-5--4--5-5-5-5-5-5--7-7-7-7-7-7------|
D|--x-x-x-x-x-x-x-x--x-x-x--x-x--x--5-5-5-5-5-5--7-7-7-7-7-7------|
A|--7-7-7-7-7-7-7-7--2-2-2--3-3--2--3-3-3-3-3-3--5-5-5-5-5-5------|
E|----------------------------------------------------------------|

e|----------------------------------------------------------------|
B|----------------------------------------------------------------|
G|-------------------9-9-9-9-9-9-9-9--5-5-5-5-5-5--7-7-7-7-7-7----|
D|--2-2-2-2-2-2-2-2--x-x-x-x-x-x-x-x--5-5-5-5-5-5--7-7-7-7-7-7----|
A|--2-2-2-2-2-2-2-2--7-7-7-7-7-7-7-7--3-3-3-3-3-3--5-5-5-5-5-5----|
E|--0-0-0-0-0-0-0-0-----------------------------------------------|


Outro

e|------------------------------------------------------------|
B|------------------------------------------------------------|
G|-----------------------------------10-10--9-9--7-7--4-4--5--|
D|-7-7-7-7-7-7-7-7--5-5-5-5-5-5-5-5--x--x---x-x--x-x--x-x--5--|
A|-7-7-7-7-7-7-7-7--5-5-5-5-5-5-5-5--8--8---7-7--5-5--2-2--3--|
E|-5-5-5-5-5-5-5-5--3-3-3-3-3-3-3-3---------------------------|

There you go.