Alkaline Trio — Message From Kathlene

ALKALINE TRIO

Message from Kathlene

Tabbed by - Dean e_mericana@hotmail.com

i could only find one tab for this song so i expanded on it, it should be right.
________________________________________________________________

intro-

e:-----------------------------------------------------------------|
b:-----------------------------------------------------------------|
g:-9-9-9-9-9-9-9-9-9-9-9-9-9-9-9-9-7-7-7-7-7-7-7-7-7-7-7-7-7-7-7-7-|
d:-6-6-6-6-6-6-6-6-7-7-7-7-7-7-7-7-7-7-7-7-7-7-7-7-6-6-6-6-6-6-6-6-|
a:-----------------------------------------------------------------|
e:-----------------------------------------------------------------|

e:-----------------------------------------------------------------|
b:-----------------------------------------------------------------|
g:-4-4-4-4-4-4-4-4-6-6-6-6-6-6-6-6-7-7-7-7-7-7-7-7-7-7-7-7-7-7-7-7-|
d:-4-4-4-4-4-4-4-4-6-6-6-6-6-6-6-6-7-7-7-7-7-7-7-7-7-7-7-7-7-7-7-7-|
a:-2-2-2-2-2-2-2-2-4-4-4-4-4-4-4-4-5-5-5-5-5-5-5-5-5-5-5-5-5-5-5-5-|
e:-----------------------------------------------------------------|

play x2
verse
e:-----------------------------------------------------------------|
b:---------------------------------3---------------3---------------|
g:-2---------------4-------2-------2---------------1---------------|
d:-2--------------------------------------------------------------|
a:-0---------------------------------------------------------------|
e:-----------------------------------------------------------------|

e:-----------------------------------------------------------------|
b:-----------------------------------------------------------------|
g:-4-4-4-4-4-4-4-4-6-6-6-6-6-6-6-6-7-7-7-7-7-7-7-7-7-7-7-7-7-7-7-7-|
d:-4-4-4-4-4-4-4-4-6-6-6-6-6-6-6-6-7-7-7-7-7-7-7-7-7-7-7-7-7-7-7-7-|
a:-2-2-2-2-2-2-2-2-4-4-4-4-4-4-4-4-5-5-5-5-5-5-5-5-5-5-5-5-5-5-5-5-|
e:-----------------------------------------------------------------|
p.m..............................................................
x2

But i guess your worth the pain.....
e:-----------------------------------------------------------------|
b:-----------------------------------------------------------------|
g:-9---------------------------------------------------------------|
d:-9---------------------------------------------------------------|
a:-7---------------------------------------------------------------|
e:-----------------------------------------------------------------|

e:-----------------------------------------------------------------|
b:-----------------------------------------------------------------|
g:-9---------------6---------------4----------------XXXXXXXXXXXXXX-|
d:-9---------------6---------------4----------------XXXXXXXXXXXXXX-|
a:-7---------------4---------------2----------------XXXXXXXXXXXXXX-|
e:-----------------------------------------------------------------|

Chorus
Your going away.......
e:-----------------------------------------------------------------|
b:-----------------------------------------------------------------|
g:-6-6-6-6-6-6-6-6-6-6-6-6-6-6-6-6-9-9-9-9-9-9-9-9-9-9-9-9-9-9-9-9-|
d:-6-6-6-6-6-6-6-6-6-6-6-6-6-6-6-6-9-9-9-9-9-9-9-9-9-9-9-9-9-9-9-9-|
a:-4-4-4-4-4-4-4-4-4-4-4-4-4-4-4-4-7-7-7-7-7-7-7-7-7-7-7-7-7-7-7-7-|
e:-----------------------------------------------------------------|

e:-----------------------------------------------------------------|
b:-----------------------------------------------------------------|
g:---------------------------------9-9-9-9-9-9-9-9-9-9-9-9-9-9-9-9-|
d:-7-7-7-7-7-7-7-7-9-9-9-9-9-9-9-9-9-9-9-9-9-9-9-9-9-9-9-9-9-9-9-9-|
a:-7-7-7-7-7-7-7-7-9-9-9-9-9-9-9-9-7-7-7-7-7-7-7-7-7-7-7-7-7-7-7-7-|
e:-5-5-5-5-5-5-5-5-7-7-7-7-7-7-7-7---------------------------------|

e:-----------------------------------------------------------------|
b:-----------------------------------------------------------------|
g:---------------------------------9-9-9-9-8-8-8-8-6-6-6-6-6-6-6-6-|
d:-7-7-7-7-7-7-7-7-9-9-9-9-9-9-9-9-9-9-9-9-8-8-8-8-6-6-6-6-6-6-6-6-|
a:-7-7-7-7-7-7-7-7-9-9-9-9-9-9-9-9-7-7-7-7-6-6-6-6-4-4-4-4-4-4-4-4-|
e:-5-5-5-5-5-5-5-5-7-7-7-7-7-7-7-7---------------------------------|

e:---------------------------------|
b:---------------------------------|
g:-4-4-4-4-4-4-4-4-----------------|
d:-4-4-4-4-4-4-4-4-7-7-7-7-7-7-7-7-|
a:-2-2-2-2-2-2-2-2-7-7-7-7-7-7-7-7-|
e:-----------------5-5-5-5-5-5-5-5-|



e:-----------------------------------------------------------------|
b:-----------------------------------------------------------------|
g:-6-6-6-6-6-6-6-6-6-6-6-6-6-6-6-6-13-13-13-14-14-14-----9-9-9-9-9-|
d:-6-6-6-6-6-6-6-6-6-6-6-6-6-6-6-6---------------------------------||
a:-4-4-4-4-4-4-4-4-4-4-4-4-4-4-4-4-11-11-11-12-12-12-----7-7-7-7-7-|
e:-----------------------------------------------------------------|

e:-----------------------------------------------------------------|
b:-----------------------------------------------------------------|
g:-4-4-4-4-4-4-4-4-6-6-6-6-6-6-6-6---------------------------------|
d:-4-4-4-4-4-4-4-4-6-6-6-6-6-6-6-6-7-7-7-7-7-7-7-7-7-7-7-7-7-7-7-7-|
a:-2-2-2-2-2-2-2-2-4-4-4-4-4-4-4-4-7-7-7-7-7-7-7-7-7-7-7-7-7-7-7-7-|
e:---------------------------------5-5-5-5-5-5-5-5-5-5-5-5-5-5-5-5-|

x2

then-

someone.......
e:-----------------------------------------------------------------|
b:-----------------------------------------------------------------|
g:-9-9-9-9-9-9-9-9-13-13-13-11-11----------------------------------|
d:-9-9-9-9-9-9-9-9 ---7-7-7-7-7-7-7-7-7-7-7-7-7-7----|
a:-7-7-7-7-7-7-7-7-11-11-11--9--9---7-7-7-7-7-7-7-7-7-7-7-7-7-7----|
e:----------------------------------5-5-5-5-5-5-5-5-5-5-5-5-5-5----|

e:-----------------------------------------------------------------|
b:-----------------------------------------------------------------|
g:-6-6-6-6-6-6-6-6-4-4-4-4-4-4-4-4-9-9-9-9-9-9-9-9-9-9-9-9-9-9-9-9-|
d:-6-6-6-6-6-6-6-6-4-4-4-4-4-4-4-4---------------------------------|
a:-4-4-4-4-4-4-4-4-2-2-2-2-2-2-2-2-7-7-7-7-7-7-7-7-7-7-7-7-7-7-7-7-|
e:-----------------------------------------------------------------|

x2

finish with-

e:-----------------|
b:-----------------|
g:-9------11-9-8---|
d:---------------2-|
a:-7-------9-7-6-2-|
e:---------------0-|

just gotta figure out the strumming, one of the best alkaline trio songs a round.
dean :)