Alkaline Trio — Mr Chainsaw

Alkaline Trio - Mr. Chainsaw
Tabbed by CarlsGreensPunk
Carls Greens is cool www.carlsgreens.cjb.net


Intro/Verse Part 1 (When was it...) x2

G-----------------------------------
D-77xx66xx44x222--------------------
A----------------4h5555555 4h5555555
E-----------------------------------

Intro/Verse Part 2 (Why is it...) x1

G----------------------------------
D--------------------------667766--
A----------------------7799------99
E-2222222222222222-0000------------

Intro/Verse Part 3 (I pray this...) x1

G-------------------------------
D--------------------------6797-
A-55-555-4h5-555-4h5-555-79----9
E-------------------------------

Chorus (Every thing that...)

G------------------------------
D------------------------------
A-------------55555555-77777777
E-5---0---2--------------------

Outro (In case you're...)

G----------------------------------
D-----------------77-99-11-11-12-12
A-0000000000000000-----------------
E----------------------------------

Outro Cont.

G----------------------------------
D----------------------------------
A-5555555555555555-7777777777777777
E----------------------------------

Final Outro

G----------------------------------
D-----------------77-99-11-11-12-12
A-0000000000000000-----------------
E----------------------------------

Final Outro Cont.


G----------------------------------
D----------------------------------
A-5555555555555555-7777777755544---
E-------------------------------7-5

Timing
Intro/Verse x1 (no vocals)
Intro/Verse x2 (w/vocals)
Chorusy Thing x2
Intro/Verse x1 (no vocals)
Intro/Verse x2 (w/vocals)
Chorusy Thing x2
Intro/Verse Part 1 (no vocals)
Outro x3
Final Outro x1
Let A (E-5) Ring