Alkaline Trio — My Friend Peter

На этой странице Вы можете ознакомиться с 3 версиями подбора аккордов для гитары к песне "My Friend Peter" группы (исполнителя) "Alkaline Trio".

Band: Alkaline Trio   
Song: My Friend Peter
Album: Alkaline Trio
Tabbed By Logan Rott--Metalwolf80@AOL.com

Catchy and pretty straight forward.

Intro
D-------------------------------------------------------------------------------------------------
A-------------------------------------------------------------------------------------------------
E--77777777-4444-2222---77777777---4444---2222---77777777---4444---2222---0000000---2222---0000---

Verse 1 & 2
D-------------------------------------------------------------------------------------------------
A-------------------------------------------------------------------------------------------------
E---7-7---4-4---2-2---77777777---4-4---2-2---77777777---4444---2222---00000000---2222---0000------

Bridge
A-------------------------------------------------------------------------------------------------
E--77777777-4444-2222---77777777---4444---2222----------------------------------------------------

Chorus
G---------------------------------------------------------------------------------------------------
D---------------------------------------------------------------------------------------------------
A--7777---0000---2222222---7777---0000---22222222---7777---0000---22222222---00000000---2222---0000-
E---------------------------------------------------------------------------------------------------

Verse 3
A---------------------------------------------------------------------------------------------------
E--77777777-4444-2222---77777777---4444---2222---77777777---4444---2222---0000000---2---0-----------


Order of the Song:

Intro X1
Verse X1
Bridge X1
Verse 2 X1
Chorus X1
Bridge X1
Verse 3 X1
Chorus X1
Alkaline Trio - My Friend Peter

Tabbed by: Justin Kraft (jak7775@rit.edu)

Key:
/ = slide up
~ = let ring
x = not played/muted
> = strum
mute = mute :)

Order:
intro, verse 1, bridge, verse 1, chorus, bridge, verse 2, chorus w/ending

Intro

e|--------------
B|--------------
G|-9>-----------
D|-x>--11>--9>--
A|-7>--11>--9>--
E|-----9->--7>--

e|---------------
B|---------------
G|-8/9>----------
D|-x/x>--11>--9>-
A|-6/7>--11>--9>-
E|-------9->--7>-

e|----------------------------------
B|----------------------------------
G|-8/9>--8/9>-----------------------
D|-x/x>--x/x>--11>--9>--7>--9>--7>--
A|-6/7>--6/7>--11>--9>--7>--9>--7>--
E|-------------9->--7>--5>--7>--5>--


Verse 1

e|---------------------------------
B|---------------------------------
G|-9-9-----------------------------
D|-x-x-mute--11-11-------9-9-------
A|-7-7-------11-11-mute--9-9-mute--
E|-----------9--9--------7-7------- x2


e|--------------------------
B|--------------------------
G|-9>-----------------------
D|-x>--11>--9>--7>--9>--7>--
A|-7>--11>--9>--7>--9>--7>--
E|-----9->--7>--5>--7>--5>--

Verse 2

e|-----------
B|-----------
G|-9---------
D|-x--11--9--
A|-7--11--9--
E|----9---7--

e|-----------
B|-----------
G|-9~~~~~~~~~
D|-x~~~~~~~~~
A|-7~~~~~~~~~
E|-----------

e|-------------------------------
B|-------------------------------
G|-9-----------------------------
D|-x--11--9--7>--7-------9-------
A|-7--11--9--7>--7-mute--9-mute--
E|----9---7--5>--5-------7-------


Bridge

e|-------------
B|-------------
G|-9>----------
D|-x>--11>--9>-
A|-7>--11>--9>-
E|-----9->--7>-

e|----------------------
B|----------------------
G|-8/9>--8/9>-----------
D|-x/x>--x/x>--11>--9>--
A|-6/7>--6/7>--11>--9>--
E|-------------9->--7>--

Chorus

e|-------------
B|-------------
G|-------------
D|-2>--7>--9>--
A|-2>--7>--9>--
E|-0>--5>--7>-- x3

e|-----------
B|-----------
G|-----------
D|-7>--9--7--
A|-7>--9--7--
E|-5>--7--5--

then, for the ending (last chorus)..

e|--------------
B|--------------
G|--------------
D|-2~~~-2~------
A|-2~~~-2~mute--
E|-0~~~-0~------
-------------------------------------------------------------------------------
My Friend Peter – Alkaline Trio
-------------------------------------------------------------------------------

Great band, cool song!!! Enjoy

Intro part 1
e|-------------------------------------------|
B|-------------------------------------------|
G|-99999999999--6666666666--444444444444-----|
D|-99999999999--6666666666--444444444444-----|
A|-77777777777--4444444444--222222222222-----|
E|-------------------------------------------|

Intro part 2
e|----------------------------------------|
B|----------------------------------------|
G|-8-99999-8-99999-66666666-4444444444----|
D|-x-xxxxx-x-xxxxx-66666666-4444444444----|
A|-6-77777-6-77777-44444444-2222222222----|
E|----------------------------------------|

Pre Chorus
e|----------------------------|
B|----------------------------|
G|----------------------------|
D|-7-------9-------7----------|
A|-7-------9-------7----------|
E|-5-------7-------5----------|

Verse
e|-----------------------------------|
B|-----------------------------------|
G|-9999------6666--------4444--------|
D|-9999------6666--------4444--------|
A|-7777------4444--------2222--------|
E|-----------------------------------|

Chorus
e|----------------------------------------------|
B|----------------------------------------------|
G|-------------------------444444444444---------|
D|-222222222--77777777777--444444444444---------|
A|-222222222--77777777777--222222222222---------|
E|-000000000--55555555555-----------------------|

Intro part 1
Intro part 2 x2
Pre Chorus
Verse x3
Pre Chorus
Intro part 1
Intro part 2
Verse x3
Pre Chorus
Chorus x3
Pre Chorus
Intro part 1
Intro part 2 x2
Pre Chorus
Verse x3
Pre Chorus
Chorus x3
Pre Chorus
End on high E!

Well a nice easy song for ya! Just the song structure maybe out a little
bit but no ones perfect!

Enjoy!

e-mail funkeymonkey10@hotmail.com

===============================================================================