Alkaline Trio — Nose Over Tail

На этой странице Вы можете ознакомиться с 2 версиями подбора аккордов для гитары к песне "Nose Over Tail" группы (исполнителя) "Alkaline Trio".

Band: Alkaline Trio
Song: Nose Over Tail
Album: The Alkaline Trio/Goddamnit (It's on both)
Tabbed By: BannY a.k.a - Tsunami Bomb

Ok this is one of trio's older songs, but if anyone who has good taste
in music will appreciate this tab. Thanks for at least looking at this...Later

G:------------------------------------4-4-:
D:-------------------------------2222--2-2:
A:-2222-2222-----------2222-2222----------:
E:-----------0000-0000--------------------:

G:------------------------------------------:
D:------------------------------------------:
A:-4444-4444-4444-4466-7777-7777------------:
E:-------------------------------55-55-55-55:

G:---------------------------------------:
D:---------------------------6-----------:
A:-----------2222-2222-4-44-6-6----------:
E:-0000-0000--------------------5555-5754:

G:--------------------:--------------------
D:--------------------:--------------------
A:-----------2222 2222:--------------------
E:-0000-0000----------:-5555-5555-2222-2222

P.S - Alkaline Trio fucking rock!
(I'm nose over tail for you)
Author/Artist: Alkaline Trio
Title: Nose Over Tail
Album: Sundials E.P./Goddamnit
Transcribed by: Jim Taone
Email: j_bro124@hotmail.com

Finally an older song... off the first album and also you
can find it on the very old out of print Sundials E.P.
Have fun... jim

Intro/Verse
-------------------------------------------------------------|
-------------------------------------------------------------|
-------------------------------------------------------------| 2x
--9-9-9-9-9-------------9-9-9-9-9----------------------------|
--9-9-9-9-9--7-7-7-7-7--9-9-9-9-9--7-7-7-7-7-----------------|
--7-7-7-7-7--7-7-7-7-7--7-7-7-7-7--7-7-7-7-7-----------------|


Chorus:
-------------------------------------------------------------|
---------------------------------------------1-0--0-1--1-0---|
----------------6-6-6-6-6--8-8-8--9-9---2-2--2-2--2-2--2-2---|
--6-6-6-6-6-6---x-x-x-x-x--x-x-x--x-x---2-2--2-2--2-2--2-2---|
--4-4-4-4-4-4---4-4-4-4-4--6-6-6--7-7---0-0--0-0--0-0--0-0---|
-------------------------------------------------------------|

-------------------------------------------------------------|
---------------------------------------------1-0-------------|
----------------6-6-6-6-6--8-8-8--9-9---2-2--2-2-------------|
--6-6-6-6-6-6---x-x-x-x-x--x-x-x--x-x---2-2--2-2--4-4--------|
--4-4-4-4-4-4---4-4-4-4-4--6-6-6--7-7---0-0--0-0--2-2--------|
-------------------------------------------------------------|

Bridge:
---------------------------------------------------------------|
---------------------------------------------------------------|
---------8------------8------------8-8-8-8------------8-8-8-8--|
--2------x------2-----x---2-2-2-2--x-x-x-x---2-2-2-2--x-x-x-x--|
--2------6------2-----6---2-2-2-2--6-6-6-6---2-2-2-2--6-6-6-6--|
--0-------------0---------0-0-0-0------------0-0-0-0-----------|
p.m.--- p.m.--- p.m.--- p.m.---
----------------------------------------------------------------|
----------------------------------------------------------------|
----------------------------------------------------------------| 2x
----------------------------------------------------------------|
---7-7-7-7-7-7----4-4-4-4-4-4-----------------------------------|
---5-5-5-5-5-5----2-2-2-2-2-2-----------------------------------|


Bridge 2
----------------------------------------------------------------|
----------------------------------------------------------------|
--9-9-9-9--8-8--4-4-4-4--6-6-6--8-8-8--9-9-9--------------------|
--x-x-x-x--x-x--x-x-x-x--x-x-x--x-x-x--x-x-x--------------------|
--7-7-7-7--6-6--2-2-2-2--4-4-4--6-6-6--7-7-7--------------------|
----------------------------------------------------------------|


Outro variation
----------------------------------------------------------------|
----------------------------------------------------------------|
--9-9-9-9--8-8--11-11-11--6-6-6--8-8-8--9-9-9-------------------|
--x-x-x-x--x-x--x--x--x---x-x-x--x-x-x--x-x-x-------------------|
--7-7-7-7--6-6--9--9--9---4-4-4--6-6-6--7-7-7-------------------|
----------------------------------------------------------------|

Songflow:
Intro
Verse 2x
Chorus
Bridge2 2x
Intro
Verse 2x
Chorus
Bridge
Bridge2 2x
Outro variation
Bridge2


Questions, comments, corrections... e-mail me at j_bro124@hotmail.com