Alkaline Trio — Private Eye

На этой странице Вы можете ознакомиться с 8 версиями подбора аккордов для гитары к песне "Private Eye" группы (исполнителя) "Alkaline Trio".

Here it is kiddies. The 100% correct bass tabs for Private Eye. This song is
amazing, and these tabs are easy to follow. Just use the guide at the bottom
and it should be a piece of cake. Any questions, e-mail me at drummerinfernus@excite.com

Private Eye:


Chorus and Verse #1

G|-------------------------------------|
D|-------------------------------------|
A|------------------22222222-33333333--|
E|-0000000000000000--------------------|

Verse #2

G|---------------------------------------|
D|------2020------2420-------------------|
A|---------------------22222222-33333333-|
E|-0000------0000------------------------|


Verse #3

G|---------------------------------------------------------------------
D|---------------------------------------------------------------------
A|-----------------22222222-55555555-----------------22222222-00000000-
E|-3333333333333333------------------3333333333333333------------------

Bridge

G|-----------------------------------|
D|-----------------------------------|
A|-----------------------------------|
E|-3333333333333333-555555555555555--|

Last note

G|---|
D|---|
A|---|
E|-3-|


Chorus 4x
Verse #1 4x
Chorus 4x
Verse #1 2x
Verse #2 2x
Verse #1 2x
Verse #3 4x
Chorus 4x
Verse #1 4x
Verse #3 4x
Bridge 1x
Verse #1 2x
Verse #2 2x
Verse #3 4x
Hold last note
Intro #4

g-----------------------------------------------------------
d-55555-4-7777-5555-----------------------------------------
a-------------------22222222-33333333-----------------------
e-----------------------------------------------------------

Verse #4
g-----------------------------------------------------------
d-----------------------------------------------------------
a-------------------22222222-33333333-----------------------
e-33333-2-5555-3333-----------------------------------------

Chorus #4

g-----------------------------------------------------------
d-----------------------------------------------------------
a--------------222222222222-555555555555--------------------
e-333333333333----------------------------------------------
Song: Private Eye
Tabbed by : Greg Thomas
E-mail me : The_reaper100@hotmail.com

This song rocks so much and i just love playing it in my band.
After six months of playing it and seeing how Dan Adriano plays it
it has come to my knowledge that most tabs for this song are partially right.
Well take it from me this is right.
Tuning standard. E,A,D,G happy :P

Intro x2

G[--------------------------------]
D[--------------------------------]
A[77777777777777772222222233333333]
E[--------------------------------]

Then...... x1

G[------------00------------------]
D[222220202222--20----------------]
A[----------------2222222233333333]
E[--------------------------------]

Intro 1 more time.

G[------------------------------------]
D[------------------------------------]
A[77777777777777772222222233333333-222]
E[------------------------------------]

Verse x4

G[--------------------------------]
D[--------------------------------]
A[----------------2222222233333333]
E[0000000000000000----------------]

Intro (again) x2
G[--------------------------------]
D[--------------------------------]
A[77777777777777772222222233333333]
E[--------------------------------]

Then Verse (Again) x2
G[--------------------------------]
D[--------------------------------]
A[----------------2222222233333333]
E[0000000000000000----------------]

Then........ x1
G[------------00------------------]
D[222220202222--20----------------]
A[----------------2222222233333333]
E[--------------------------------]

Then verse x1
G[--------------------------------]
D[--------------------------------]
A[----------------2222222233333333]
E[0000000000000000----------------]

Hooray the chorus

G[--------------------------------]
D[--------------------------------]
A[------------------------55555555]
E[3333/153333/1577777777--------]

G[--------------------------------]
D[--------------------------------]
A[------------------------55555555]
E[333333333333333377777777--------]

G[--------------------------------]
D[--------------------------------]
A[------------------------55555555]
E[3333/153333/1577777777--------]

G[--------------------------------]
D[--------------------------------]
A[------------------------55555555]
E[333333333333333377777777--------]

Then back to the intro part x1

G[--------------------------------]
D[--------------------------------]
A[77777777777777772222222233333333]
E[--------------------------------]

then........... x1

G[------------00------------------]
D[222220202222--20----------------]
A[----------------2222222233333333]
E[--------------------------------]

Guitar fades out (your on your own)
Verse again x2

G[--------------------------------]
D[--------------------------------]
A[----------------2222222233333333]
E[0000000000000000----------------]

then.......... x1

G[------------00------------------]
D[222220202222--20----------------]
A[----------------2222222233333333]
E[--------------------------------]

verse x1

G[--------------------------------]
D[--------------------------------]
A[----------------2222222233333333]
E[0000000000000000----------------]

Chorus

G[--------------------------------]
D[--------------------------------]
A[------------------------55555555]
E[3333/153333/1577777777--------]

G[--------------------------------]
D[--------------------------------]
A[------------------------55555555]
E[333333333333333377777777--------]

G[--------------------------------]
D[--------------------------------]
A[------------------------55555555]
E[3333/153333/1577777777--------]

G[--------------------------------]
D[--------------------------------]
A[------------------------55555555]
E[333333333333333377777777--------]

Interlude or Bridge

G[--------------------------------]
D[--------------------------------]
A[----------------5555555555555555]
E[7777777777777777----------------]

Intro again x1

G[--------------------------------]
D[--------------------------------]
A[77777777777777772222222233333333]
E[--------------------------------]

then............ x1

G[------------00------------------]
D[222220202222--20----------------]
A[----------------2222222233333333]
E[--------------------------------]

Chorus
G[--------------------------------]
D[--------------------------------]
A[------------------------55555555]
E[3333/153333/1577777777--------]

G[--------------------------------]
D[--------------------------------]
A[------------------------55555555]
E[333333333333333377777777--------]

G[--------------------------------]
D[--------------------------------]
A[------------------------55555555]
E[3333/153333/1577777777--------]

G[--------------------------------]
D[--------------------------------]
A[------------------------55555555]
E[333333333333333377777777--------]

End on
G[--------------------------------]
D[--------------------------------]
A[--------------------------------]
E[3~~~~~~~------------------------]
Let ring.

Hope ya like it e-mail me if its good!!!!!
Tabbed by:Timmy W (correct version)
Email: No

Tuning:
Intro/main riff
e|----------------------------------------------------------
B|----------------------------------------------------------
G|--12-12-12-12-12-12-11-11-14-14-14-14-12-12-12-12---------
D|--12-12-12-12-12-12-11-11-14-14-14-14-12-12-12-12---------
A|--10-10-10-10-10-10-9--9--12-12-12-12-10-10-10-10---------
E|----------------------------------------------------------

e|----------------------------------------------------------
B|----------------------------------------------------------
G|----------------------------------------------------------
D|--9-9-9-9-9-9-9-9-10-10-10-10-10-10-10-10-----------------
A|--9-9-9-9-9-9-9-9-10-10-10-10-10-10-10-10-----------------
E|--7-7-7-7-7-7-7-7-8--8--8--8--8--8--8--8------------------

e|----------------------------------------------------------
B|----------------------------------------------------------
G|--12-12-12-12-12-12-11-11-14-14-14-14-12-12-12-12---------
D|--12-12-12-12-12-12-11-11-14-14-14-14-12-12-12-12---------
A|--10-10-10-10-10-10-9--9--12-12-12-12-10-10-10-10---------
E|----------------------------------------------------------

e|----------------------------------------------------------|
B|----------------------------------------------------------|
G|----------------------------------------------------------|
D|--9-9-9-9-9-9-9-9-10-10-10-9-9----------------------------|
A|--9-9-9-9-9-9-9-9-10-10-10-9-9----------------------------|
E|--7-7-7-7-7-7-7-7-8--8--8--7-7----------------------------|

Verse (palm muted)
e|-----------------------------------------------
B|-----------------------------------------------
G|-----------------------------------------------
D|-----------------------------------------------
A|--10-10-10-10-10-10-9-9-12-12-12-12-10-10-10-10
E|-----------------------------------------------

e|-----------------------------------------------|
B|-----------------------------------------------|
G|-----------------------------------------------|
D|-----------------------------------------------| times 4
A|--7-7-7-7-7-7-7-7-8-8-8-8-8-8-8-8--------------|
E|-----------------------------------------------|

Then Intro/main riff once
e|----------------------------------------------------------
B|----------------------------------------------------------
G|--12-12-12-12-12-12-11-11-14-14-14-14-12-12-12-12---------
D|--12-12-12-12-12-12-11-11-14-14-14-14-12-12-12-12---------
A|--10-10-10-10-10-10-9--9--12-12-12-12-10-10-10-10---------
E|----------------------------------------------------------

e|----------------------------------------------------------|
B|----------------------------------------------------------|
G|----------------------------------------------------------|
D|--9-9-9-9-9-9-9-9-10-10-10-10-10-10-10-10-----------------|
A|--9-9-9-9-9-9-9-9-10-10-10-10-10-10-10-10-----------------|
E|--7-7-7-7-7-7-7-7-8--8--8--8--8--8--8--8------------------|

Verse (palm muted)
e|-----------------------------------------------
B|-----------------------------------------------
G|-----------------------------------------------
D|-----------------------------------------------
A|--10-10-10-10-10-10-9-9-12-12-12-12-10-10-10-10
E|-----------------------------------------------

e|-----------------------------------------------
B|-----------------------------------------------
G|-----------------------------------------------
D|----------------------------------------------- times 2
A|--7-7-7-7-7-7-7-7-8-8-8-8-8-8-8-8--------------
E|-----------------------------------------------

But end verse this time with (palm muted exept power chords)
e|-------------------------------------------------
B|-------------------------------------------------
G|--------12-12-------12-12-------12-12-------12-12
D|--------12-12-------12-12-------12-12-------12-12
A|--10-10-10-10-10-10-10-10-10-10-10-10-10-10-10-10
E|-------------------------------------------------

e|-----------------------------------------------
B|-----------------------------------------------
G|-----------------------------------------------
D|-----------------------------------------------
A|--7-7-7-7-7-7-7-7-8-8-8-8-8-8-8-8--------------
E|-----------------------------------------------

e|-----------------------------------------------
B|-----------------------------------------------
G|-----------------------------------------------
D|-----------------------------------------------
A|--10-10-10-10-10-10-9-9-12-12-12-12-10-10-10-10
E|-----------------------------------------------

e|-----------------------------------------------|
B|-----------------------------------------------|
G|-----------------------------------------------|
D|-----------------------------------------------|
A|--7-7-7-7-7-7-7-7-8-8-8-8-8-8-8-8--------------|
E|-----------------------------------------------|

Chorus
e|--------------------------------------------------
B|--------------------------------------------------
G|--12-12-12-12-12-12-12-12-12-12-12-12-12-12-12-12-
D|--12-12-12-12-12-12-12-12-12-12-12-12-12-12-12-12-
A|--10-10-10-10-10-10-10-10-10-10-10-10-10-10-10-10-
E|--------------------------------------------------

e|--------------------------------------------------
B|--------------------------------------------------
G|--------------------------------------------------
D|--9-9-9-9-9-9-9-9-12-12-12-12-12-12-12-12---------
A|--9-9-9-9-9-9-9-9-12-12-12-12-12-12-12-12---------
E|--7-7-7-7-7-7-7-7-10-10-10-10-10-10-10-10---------

e|--------------------------------------------------
B|--------------------------------------------------
G|--12-12-12-12-12-12-12-12-12-12-12-12-12-12-12-12-
D|--12-12-12-12-12-12-12-12-12-12-12-12-12-12-12-12-
A|--10-10-10-10-10-10-10-10-10-10-10-10-10-10-10-10-
E|--------------------------------------------------

e|--------------------------------------------------|
B|--------------------------------------------------|
G|--------------------------------------------------|
D|--14-14-14-14-14-14-14-14-12-12-12-12-12-12-12-12-| times 2
A|--14-14-14-14-14-14-14-14-12-12-12-12-12-12-12-12-|
E|--12-12-12-12-12-12-12-12-10-10-10-10-10-10-10-10-|

Back to intro/main riff X2

Then

Verse

E----------------------------------------------------------------
B----------------------------------------------------------------
G--12------------------------------------------------------------
D--12---let ring for -16 bars------------------------------------
A--10------------------------------------------------------------
E----------------------------------------------------------------

Palm muted
e|-----------------------------------------------
B|-----------------------------------------------
G|-----------------------------------------------
D|-----------------------------------------------
A|--10-10-10-10-10-10-9-9-12-12-12-12-10-10-10-10
E|-----------------------------------------------

e|-----------------------------------------------|
B|-----------------------------------------------|
G|-----------------------------------------------|
D|-----------------------------------------------| times 2
A|--7-7-7-7-7-7-7-7-8-8-8-8-8-8-8-8--------------|
E|-----------------------------------------------|

Chorus X2

And end it with
e|--------------------------------------------------
B|--------------------------------------------------
G|--10-10-10-10-10-10-10-10-10-10-10-10-10-10-10-10-
D|--10-10-10-10-10-10-10-10-10-10-10-10-10-10-10-10-
A|--8--8--8--8--8--8--8--8--8--8--8--8--8--8--8--8--
E|--------------------------------------------------

e|--------------------------------------------------|
B|--------------------------------------------------|
G|--12-12-12-12-12-12-12-12-12-12-12-12-12-12-12-12-|
D|--12-12-12-12-12-12-12-12-12-12-12-12-12-12-12-12-|
A|--10-10-10-10-10-10-10-10-10-10-10-10-10-10-10-10-|
E|--------------------------------------------------|

Then
e|---------------------------------------------------|
B|---------------------------------------------------|
G|--12-12-12-12-12-12-11-11-14-14-14-14-12-12-12-12--|
D|--12-12-12-12-12-12-11-11-14-14-14-14-12-12-12-12--| 4 times
A|--10-10-10-10-10-10-9--9--12-12-12-12-10-10-10-10--|
E|---------------------------------------------------|

and finally Chorus X2 to end with


Thats it. I have seen this band play live and am very sure this is right.

Another amazing timmy tab!!!!!!!!!!!!!!!!


| / slide up
| slide down
| h hammer-on
| p pull-off
| ~ vibrato
| + harmonic
| x Mute note
===============================================================================
Intro:
E ----------------------------------------------------------------------------------
B ----------------------------------------------------------------------------------
G -12-12-12-12-12-12--11-11--14-14-14-14--12-12-12-12-------------------------------
D --x--x--x--x--x--x---x--x---x--x--x--x---x--x--x--x--9-9-9-9-9-9-9-9--10-10-10-10-
A -10-10-10-10-10-10---9--9--12-12-12-12--10-10-10-10--9-9-9-9-9-9-9-9--10-10-10-10-
E --0--0--0--0--0--0---0--0---0--0--0--0---0--0--0--0--7-7-7-7-7-7-7-7---8--8--8--8-

E ----------------------------------------------------------------------------------
B ----------------------------------------------------------------------------------
G ----------------------------------------------------------------------------------
D -10-10-10-10----------------------------------------------------------------------
A -10-10-10-10----------------------------------------------------------------------
E --8--8--8--8----------------------------------------------------------------------

Intro part 2:
E-----------------------------------------------------------------------------------
B ----------------------------------------------------------------------------------
G -12-12-12-12-12-12--11-11--14-14-14-14--12-12-12-12-------------------------------
D --x--x--x--x--x--x---x--x---x--x--x--x---x--x--x--x--9-9-9-9-9-9-9-9--10-10-10--9-
A -10-10-10-10-10-10---9--9--12-12-12-12--10-10-10-10--9-9-9-9-9-9-9-9--10-10-10--9-
E --0--0--0--0--0--0---0--0---0--0--0--0---0--0--0--0--7-7-7-7-7-7-7-7---8--8--8--7-

E ----------------------------------------------------------------------------------
B ----------------------------------------------------------------------------------
G ----------------------------------------------------------------------------------
D -9-9------------------------------------------------------------------------------
A -9-9------------------------------------------------------------------------------
E -7-7------------------------------------------------------------------------------

Verse Part 1:
(Palm Muted)

E ----------------------------------------------------------------------------------
B ----------------------------------------------------------------------------------
G ----------------------------------------------------------------------------------
D ---------------------------------------------------9-9-9-9-9-9-9-9--10-10-10-10-10
A -10-10-10-10-10-10--9-9--12-12-12-12--10-10-10-10--9-9-9-9-9-9-9-9--10-10-10-10-10
E --0--0--0--0--0--0--0-0---0--0--0--0---0--0--0--0--7-7-7-7-7-7-7-7---8--8--8--8--8


E ----------------------------------------------------------------------------------
B ----------------------------------------------------------------------------------
G ----------------------------------------------------------------------------------
D -10-10-10-------------------------------------------------------------------------
A -10-10-10-------------------------------------------------------------------------
E --8--8--8-------------------------------------------------------------------------

Verse part 2:
E ----------------------------------------------------------------------------------
B ----------------------------------------------------------------------------------
G -12-12--12-12--12-12--12-12-------------------------------------------------------
D --x--x---x--x---x--x---x--x--9-9-9-9-9-9-9-9--10-10-10-10-10-10-10-10-------------
A -10-10--10-10--10-10--10-10--9-9-9-9-9-9-9-9--10-10-10-10-10-10-10-10-------------
E -----------------------------7-7-7-7-7-7-7-7---8--8--8--8--8--8--8--8-------------

Chorus:
E ----------------------------------------------------------------------------------
B ----------------------------------------------------------------------------------
G -12-12-12-12-12-12-12-12-12-12-12-12-12-12-12-12-------------------7-7-7-7-7-7-7-7
D -12-12-12-12-12-12-12-12-12-12-12-12-12-12-12-12--9-9-9-9-9-9-9-9--7-7-7-7-7-7-7-7
A -10-10-10-10-10-10-10-10-10-10-10-10-10-10-10-10--9-9-9-9-9-9-9-9--5-5-5-5-5-5-5-5
E --------------------------------------------------7-7-7-7-7-7-7-7-----------------

E ----------------------------------------------------------------------------------
B ----------------------------------------------------------------------------------
G ----12-12-12-12-12-12-12-12-12-12-12-12-12-12-12-12-------------------------------
D -7--12-12-12-12-12-12-12-12-12-12-12-12-12-12-12-12--9-9-9-9-9-9-9-9-9--7-7-7-7-7-
A -7--10-10-10-10-10-10-10-10-10-10-10-10-10-10-10-10--9-9-9-9-9-9-9-9-9--7-7-7-7-7-
E -5---------------------------------------------------7-7-7-7-7-7-7-7-7--5-5-5-5-5-

E ----------------------------------------------------------------------------------
B ----------------------------------------------------------------------------------
G ----------------------------------------------------------------------------------
D -7-7-7----------------------------------------------------------------------------
A -7-7-7----------------------------------------------------------------------------
E -5-5-5----------------------------------------------------------------------------


Or

E ----------------------------------------------------------------------------------
B ----------------------------------------------------------------------------------
G ---------------------------------------------------7-7-7-7-7-7-7-7----------------
D -5-5-5-5-5-5-5-5-5-5-5-5-5-5-5-5--9-9-9-9-9-9-9-9--7-7-7-7-7-7-7-7----------------
A -5-5-5-5-5-5-5-5-5-5-5-5-5-5-5-5--9-9-9-9-9-9-9-9--5-5-5-5-5-5-5-5----------------
E -3-3-3-3-3-3-3-3-3-3-3-3-3-3-3-3--7-7-7-7-7-7-7-7---------------------------------

E ----------------------------------------------------------------------------------
B ----------------------------------------------------------------------------------
G ----------------------------------9-9-9-9-9-9-9-9--7-7-7-7-7-7-7-7----------------
D -5-5-5-5-5-5-5-5-5-5-5-5-5-5-5-5--9-9-9-9-9-9-9-9--7-7-7-7-7-7-7-7----------------
A -5-5-5-5-5-5-5-5-5-5-5-5-5-5-5-5--7-7-7-7-7-7-7-7--5-5-5-5-5-5-5-5----------------
E -3-3-3-3-3-3-3-3-3-3-3-3-3-3-3-3--------------------------------------------------

Chorus Part 2:
E ----------------------------------------------------------------------------------
B ----------------------------------------------------------------------------------
G ----------------------------------------------------------------------------------
D -10-10-10-10-10-10-10-10-10-10-10-10-10-10-10--12-12-12-12-12-12-12-12-12-12-12-12
A -10-10-10-10-10-10-10-10-10-10-10-10-10-10-10--12-12-12-12-12-12-12-12-12-12-12-12
E --8--8--8--8--8--8--8--8--8--8--8--8--8--8--8--10-10-10-10-10-10-10-10-10-10-10-10

Riff:
E ----------------------------------------------------------------------------------
B ----------------------------------------------------------------------------------
G -12-12-12-12-12-12--11-11--14-14-14-14--12-12-12-12--12-12------------------------
D --x--x--x--x--x--x---x--x---x--x--x--x---x--x--x--x---x--x------------------------
A -10-10-10-10-10-10---9--9--12-12-12-12--10-10-10-10--10-10------------------------
E ----------------------------------------------------------------------------------


Finish on:
E ------------
B ------------
G ------------
D -5----------
A -5----------
E -3----------
Chords Used:
G B D Eiio Fiio Giio
-------------------------------------------------
-------------------------------------------------
-----4---7--11----12----14-----------------------
-5---4---7--x-----x-----x------------------------
-5---2---5--9-----10----12-----------------------
-3-----------------------------------------------


Intro/Verse: (when playing verse just p.m.)

----------------------------------------------|
----------------------------------------------|
-12-12-12-12-12-12-11-11--14-14-14-14--12-12--|
-x--x--x--x--x--x--x--x---x--x--x--x---x--x---|
-10-10-10-10-10-10-9--9---12-12-12-12--10-10--|
----------------------------------------------|

-----------------------------|
-----------------------------|
-4-4-4-4-4-4-4-4----6-6-6-6--|
-4-4-4-4-4-4-4-4----6-6-6-6--|
-2-2-2-2-2-2-2-2----4-4-4-4--|
-----------------------------|

Chorus
----------------------------------------------|
----------4--------7--------------------------|
----------4--------7--------------------------| 4x
-5--------2--------5--------------------------|
-5--------------------------------------------|
-3--------------------------------------------|


Songflow:
Intro 4x
Verse 4x
Intro 2x
Verse 4x
Chorus
Verse 4x
Chorus
Intro 4x
Chorus
End on G

tabbed by: the guitar player from twenty pence refund go to 20prefund.5u.com
-------------------------------------------------------------------------------
SONG NAME - Private eye
-------------------------------------------------------------------------------

Tabbed by:Timmy W
Email:No

Intro/Main riff

e|-----------------------------------------------------------------
B|-----------------------------------------------------------------
G|--11-11-11-11-11-11-10-10-13--13--13--13--11-11-11-11------------
D|--11-11-11-11-11-11-10-10-13--13--13--13--11-11-11-11------------
A|--9--9--9--9--9--9--8--8--11--11--11--11--9--9--9--9-------------
E|-----------------------------------------------------------------

e|-----------------------------------------------------------------
B|-----------------------------------------------------------------
G|-----------------------------------------------------------------
D|--8-8-8-8-8-8-8-8-9-9-9-9-9-9-9-9--------------------------------
A|--8-8-8-8-8-8-8-8-9-9-9-9-9-9-9-9--------------------------------
E|--6-6-6-6-6-6-6-6-7-7-7-7-7-7-7-7--------------------------------

e|-----------------------------------------------------------------
B|-----------------------------------------------------------------
G|--11-11-11-11-11-11-10-10-13--13--13--13--11-11-11-11------------
D|--11-11-11-11-11-11-10-10-13--13--13--13--11-11-11-11------------
A|--9--9--9--9--9--9--8--8--11--11--11--11--9--9--9--9-------------
E|-----------------------------------------------------------------

e|-----------------------------------------------------------------
B|-----------------------------------------------------------------
G|-----------------------------------------------------------------
D|--8-8-8-8-8-8-8-8--9-9-9--8-8------------------------------------
A|--8-8-8-8-8-8-8-8--9-9-9--8-8------------------------------------
E|--6-6-6-6-6-6-6-6--7-7-7--6-6------------------------------------

Verse (Palm muted) 4 times
e|-----------------------------------------------------------------
B|-----------------------------------------------------------------
G|-----------------------------------------------------------------
D|-----------------------------------------------------------------
A|--9--9--9--9--9--9--8--8--11--11--11--11--9--9--9--9-------------
E|-----------------------------------------------------------------

e|-----------------------------------------------------------------
B|-----------------------------------------------------------------
G|-----------------------------------------------------------------
D|--8-8-8-8-8-8-8-8--9-9-9-9-9-9-9-9-------------------------------
A|--8-8-8-8-8-8-8-8--9-9-9-9-9-9-9-9-------------------------------
E|--6-6-6-6-6-6-6-6--7-7-7-7-7-7-7-7-------------------------------

Then
e|-----------------------------------------------------------------
B|-----------------------------------------------------------------
G|--11-11-11-11-11-11-10-10-13--13--13--13--11-11-11-11------------
D|--11-11-11-11-11-11-10-10-13--13--13--13--11-11-11-11------------
A|--9--9--9--9--9--9--8--8--11--11--11--11--9--9--9--9-------------
E|-----------------------------------------------------------------

e|-----------------------------------------------------------------
B|-----------------------------------------------------------------
G|-----------------------------------------------------------------
D|--8-8-8-8-8-8-8-8--9-9-9--8-8------------------------------------
A|--8-8-8-8-8-8-8-8--9-9-9--8-8------------------------------------
E|--6-6-6-6-6-6-6-6--7-7-7--6-6------------------------------------

Verse again (Palm muted) 2 times
e|-----------------------------------------------------------------
B|-----------------------------------------------------------------
G|-----------------------------------------------------------------
D|-----------------------------------------------------------------
A|--9--9--9--9--9--9--8--8--11--11--11--11--9--9--9--9-------------
E|-----------------------------------------------------------------

e|-----------------------------------------------------------------
B|-----------------------------------------------------------------
G|-----------------------------------------------------------------
D|--8-8-8-8-8-8-8-8--9-9-9-9-9-9-9-9-------------------------------
A|--8-8-8-8-8-8-8-8--9-9-9-9-9-9-9-9-------------------------------
E|--6-6-6-6-6-6-6-6--7-7-7-7-7-7-7-7-------------------------------

End verse this time with
e|-----------------------------------------------------------------
B|-----------------------------------------------------------------
G|--------11-11-------11-11-------11-11-------11-11----------------
D|--------11-11-------11-11-------11-11-------11-11----------------
A|--9--9--9--9--9--9--9--9--9--9--9--9--9--9--9--9-----------------
E|-----------------------------------------------------------------

e|-----------------------------------------------------------------
B|-----------------------------------------------------------------
G|-----------------------------------------------------------------
D|--8-8-8-8-8-8-8-8--9-9-9-9-9-9-9-9-------------------------------
A|--8-8-8-8-8-8-8-8--9-9-9-9-9-9-9-9-------------------------------
E|--6-6-6-6-6-6-6-6--7-7-7-7-7-7-7-7-------------------------------

e|-----------------------------------------------------------------
B|-----------------------------------------------------------------
G|-----------------------------------------------------------------
D|-----------------------------------------------------------------
A|--9--9--9--9--9--9--8--8--11--11--11--11--9--9--9--9-------------
E|-----------------------------------------------------------------

e|-----------------------------------------------------------------
B|-----------------------------------------------------------------
G|-----------------------------------------------------------------
D|--8-8-8-8-8-8-8-8--9-9-9-9-9-9-9-9-------------------------------
A|--8-8-8-8-8-8-8-8--9-9-9-9-9-9-9-9-------------------------------
E|--6-6-6-6-6-6-6-6--7-7-7-7-7-7-7-7-------------------------------


Chorus play twice
e|-----------------------------------------------------------------
B|-----------------------------------------------------------------
G|--11-11-11-11-11-11-11-11-11-11-11-11-11-11-11-11----------------
D|--11-11-11-11-11-11-11-11-11-11-11-11-11-11-11-11----------------
A|--9--9--9--9--9--9--9--9--9--9--9--9--9--9--9--9-----------------
E|-----------------------------------------------------------------

e|-----------------------------------------------------------------
B|-----------------------------------------------------------------
G|-----------------------------------------------------------------
D|--88888888-11-11-11-11-11-11-11-11-------------------------------
A|--88888888-11-11-11-11-11-11-11-11-------------------------------
E|--66666666-9--9--9--9--9--9--9--9--------------------------------

e|-----------------------------------------------------------------
B|-----------------------------------------------------------------
G|--11-11-11-11-11-11-11-11-11-11-11-11-11-11-11-11----------------
D|--11-11-11-11-11-11-11-11-11-11-11-11-11-11-11-11----------------
A|--9--9--9--9--9--9--9--9--9--9--9--9--9--9--9--9-----------------
E|-----------------------------------------------------------------

e|-----------------------------------------------------------------
B|-----------------------------------------------------------------
G|-----------------------------------------------------------------
D|--13-13-13-13-13-13-13-13--11-11-11-11-11-11-11-11---------------
A|--13-13-13-13-13-13-13-13--11-11-11-11-11-11-11-11---------------
E|--11-11-11-11-11-11-11-11--9--9--9--9--9--9--9--9----------------

Back to intro/main riff X2

Verse
E-----------------------------------------------------------------
B-----------------------------------------------------------------
G--11-------------------------------------------------------------
D--11----let ring for 16 bars-------------------------------------
A--9--------------------------------------------------------------
E-----------------------------------------------------------------

Play the next bit twice palm muted
e|-----------------------------------------------------------------
B|-----------------------------------------------------------------
G|-----------------------------------------------------------------
D|-----------------------------------------------------------------
A|--9--9--9--9--9--9--8--8--11--11--11--11--9--9--9--9-------------
E|-----------------------------------------------------------------

e|-----------------------------------------------------------------
B|-----------------------------------------------------------------
G|-----------------------------------------------------------------
D|--8-8-8-8-8-8-8-8--9-9-9-9-9-9-9-9-------------------------------
A|--8-8-8-8-8-8-8-8--9-9-9-9-9-9-9-9-------------------------------
E|--6-6-6-6-6-6-6-6--7-7-7-7-7-7-7-7-------------------------------

Chorus X2

But end it with this
E------------------------------------------------------------------
B------------------------------------------------------------------
G------------------------------------------------------------------
D--9999999999999999-11-11-11-11-11-11-11-11-11-11-11-11-11-11-11-11
A--9999999999999999-11-11-11-11-11-11-11-11-11-11-11-11-11-11-11-11
E--7777777777777777-9--9--9--9--9--9--9--9--9--9--9--9--9--9--9--9-

Then play
E----------------------------------------------------------------
B----------------------------------------------------------------
G--11-11-11-11-11-11-10-10-13-13-13-13--11-11-11-11--------------
D--11-11-11-11-11-11-10-10-13-13-13-13--11-11-11-11--------------times 4
A--9--9--9--9--9--9--8--8--11-11-11-11--9--9--9--9---------------
E----------------------------------------------------------------

Chorus X2

Then thats it. It may look long but it is easy.


| / slide up
| slide down
| h hammer-on
| p pull-off
| ~ vibrato
| + harmonic
| x Mute note
| Pm . Palm muted
===============================================================================
-------------------------------------------------------------------------------
Private Eye – Alkaline Trio
-------------------------------------------------------------------------------

There you have it another song by the mighty Alkaline Trio

INTRO
e|------------------------------------------------------------------|
B|------------------------------------------------------------------|
G|-1212121212-11111111-141414141414-1212121212----------------------|
D|-x-x-x-x-x--xxxxxxx--x-x-x-x-x-x--x-x-x-x-x--9999-101010----------|
A|-1010101010-9999999--121212121212-1010101010-9999-101010----------|
E|---------------------------------------------7777-88888-----------|

VERSE
e|--------------------------------------------------------------|
B|--------------------------------------------------------------|
G|--------------------------------------------------------------|
D|--------------------------------------------------------------|
A|-10101010-99999999-121212121212-1010101010-999999-101010------|
E|-------------------------------------------777777-888888------|
******** ******** ************ ********** ****** ******

CHORUS
e|-------------------------------------------------------------------|
B|-------------------------------------------------------------------|
G|------------4444444-7777777-------------9999999-7777777------------|
D|-555555555--4444444-7777777-5555555555--9999999-7777777------------|
A|-555555555--2222222-5555555-5555555555--7777777-5555555------------|
E|-333333333------------------3333333333-----------------------------|

PRE INTERLUDE
e|--------------------------------------------|
B|--------------------------------------------|
G|-555555555555--7777777777-------------------|
D|-555555555555--7777777777-------------------|
A|-333333333333--5555555555-------------------|
E|--------------------------------------------|

INTERLUDE
e|-------------------------------------------------------|
B|-------------------------------------------------------|
G|-12121212-111111-1414141414-121212121212---------------|
D|-xxxxxxxx-xxxxxx-xxxxxxxxxx-xxxxxxxxxxxx---------------|
A|-10101010-999999-1212121212-101010101010---------------|
E|-------------------------------------------------------|

SONG OUTLINE!

INTRO x 4
VERSE x 4
INTRO x 2
VERSE x 4
CHORUS x 2
INTRO x 2
VERSE x 2 (bass plays the first half od the verse on it’s own!)
CHORUS x 2
PRE INTERLUDE
INTERLUDE x 4
CHORUS x 2

===============================================================================