Alkaline Trio — Queen Of Pain

На этой странице Вы можете ознакомиться с 3 версиями подбора аккордов для гитары к песне "Queen Of Pain" группы (исполнителя) "Alkaline Trio".

-------------------------------------------------------------------------------
Queen Of Pain – Alkaline Trio
-------------------------------------------------------------------------------

This is one of Alkaline Trio’s song of there new split ep with Hot water music
I’m sure they have two guitarists in this so I’ll try and tab out both parts!

Key
** Palm Mute
~~ Let Ring
>> Slide
>
x Pick Slide
>

INTRO RIFF
e|------------------------------------------------------------------|
B|------------------------------------------------------------------|
G|---------6-6-6-6-4-4-4-4-3-3-3-3----------6-6-6-6-4-4-4-4-3-3-3-3-|
D|------------------------------------------------------------------|
A|-6-6-6-6----------------------------------------------------------|
E|---------------------------------7-7-7-7--------------------------|

e|------------------------------------------------------------------|
B|------------------------------------------------------------------|
G|---------6-6-6-6-4-4-4-4-3-3-3-3----------------------------------|
D|---------------------------------4444444--------------------------|
A|-6-6-6-6-------------------------2222222--------------------------|
E|------------------------------------------------------------------|

INTRO CHORDS
e|------------------------------------------------------------------|
B|------------------------------------------------------------------|
G|------------------------------------------------------------------|
D|-8888888-666-4444444-333------------3333333333-4444444444---------|
A|-6666666-444-2222222-111-6666666666-1111111111-2222222222---------|
E|-------------------------4444444444-------------------------------|

PRE VERSE
e|-----------------------|
B|-----------------------|
G|-----------------------|
D|-88888888-666--4-------|
A|-66666666-444--2-------|
E|-----------------------|
********

VERSE
e|--------------------------------------------|
B|--------------------------------------------|
G|--------------------------------------------|
D|--4->-6->-8->-6->-4->-6->-4->-2-------------|
A|--2->-4->-6->-4->-2->-4->-2->-0-------------|
E|--------------------------------------------|

CHORUS
e|-----------------------------------------|
B|-----------------------------------------|
G|-----------------888-888-444-444---------|
D|-444-444-444-444-888-888-444-444---------|
A|-444-444-444-444-666-666-222-222---------|
E|-222-222-222-222-------------------------|
** ** ** ** ** ** ** **

CHORUS ENDING
e|-----------------------------------------|
B|-----------------------------------------|
G|-----------------888-888-666-666666------|
D|-444-444-444-444-888-888-666-666666------|
A|-444-444-444-444-666-666-444-444444------|
E|-222-222-222-222-------------------------|
** ** ** ** ** ** ** ***

BRIDGE
e|------------------------------------------------------|
B|------------------------------------------------------|
G|----------------8888888888-666666666666---------------|
D|-44444444444444-8888888888-666666666666---------------|
A|-44444444444444-6666666666-444444444444---------------|
E|-22222222222222---------------------------------------|
************** ********** ************
e|------------------------------------------------------|
B|------------------------------------------------------|
G|----------------8888888888-4444444444444--------------|
D|-44444444444444-8888888888-4444444444444-->-----------|
A|-44444444444444-6666666666-2222222222222--x-----------|
E|-22222222222222--------------------------->-----------|
************** ********** ********

OUTRO RIFF
e|------------------------------------------------------------------|
B|------------------------------------------------------------------|
G|---------6-6-6-6-4-4-4-4-3-3-3-3----------6-6-6-6-4-4-4-4-3-3-3-3-|
D|-4-4-4-4----------------------------------------------------------|
A|---------------------------------6-6-6-6--------------------------|
E|------------------------------------------------------------------|

SONG LAYOUT!

INTRO x 2
PRE VERSE
VERSE
INTRO
VERSE
PRE VERSE
CHORUS x 3
CHORUS ENDING
INTRO
VERSE
PRE VERSE
CHORUS x 3
CHORUS ENDING
BRIDGE
CHORUS x 3
CHORUS ENDING
OUTRO RIFF x 4
===============================================================================
Alkaline Trio - Queen Of Pain
Tabbed By: Chris
EMail: pnutbutter311@netscape.net


INTRO

G|-----------------------------------------------------------------|
D|-----------------------------------------------------------------|
A|-7-7-7-7-7-7-7-7-7-7-7-7-4-4-4-4-2-2-2-2-2-2-2-2-2-2-2-2-1-1-1-1-|
E|-----------------------------------------------------------------|

G|-----------------------------------------------------------------|
D|-----------------------------------------------------------------|
A|---------------------------------2-2-2-2-2-2-2-2-2-2-2-2-2-2-2-2-|
E|-4-4-4-4-4-4-4-4-2-2-2-2-2-2-2-2---------------------------------|

G|-----------------------------------------------------------------|
D|-----------------------------------------------------------------|
A|-7-7-7-7-7-7-7-7-7-7-7-7-4-4-4-4-2-2-2-2-2-2-2-2-2-2-2-2-1-1-1-1-|
E|-----------------------------------------------------------------|

G|---------------------------------------------------------------|
D|---------------------------------------------------------------|
A|---------------------------------2-2-2-2-2-2-2-2-2-2-2-2-2/12-|
E|-4-4-4-4-4-4-4-4-2-2-2-2-2-2-2-2-------------------------------|

FIRST VERSE

G|-----------------------------------------|
D|-----------------------------------------|
A|----4-4--2-2-2-2-2-2-2-2-4-4-4-4-4-4-4-4-|
E|-----------------------------------------|

G|-----------------------------------------------------------------|
D|-----------------------------------------------------------------|
A|-6-6-6-6-6-6-6-6-6-6-6-6-4-4-4-4-2-2-2-2-2-2-2-2-----------------|
E|-------------------------------------------------2-2-2-2-1-1-1-1-|

G|-----------------------------------------------------------------|
D|-----------------------------------------------------------------|
A|-6-6-6-6-6-6-6-6-6-6-6-6-4-4-4-4-2-2-2-2-2-2-2-2-4-4-4-4-4-4-4-4-|
E|-----------------------------------------------------------------|

G|-----------------------------------------------------------------|
D|-----------------------------------------------------------------|
A|-6-6-6-6-6-6-6-6-6-6-6-6-4-4-4-4-2-2-2-2-2-2-2-2-----------------|
E|-------------------------------------------------2-2-2-2-1-1-1-1-|

SUBSEQUENT VERSES

G|-----------------------------------------------------------------|
D|-----------------------------------------------------------------|
A|-6-6-6-6-6-6-6-6-6-6-6-6-4-4-4-4-2-2-2-2-2-2-2-2-4-4-4-4-4-4-4-4-|
E|-----------------------------------------------------------------|

G|-----------------------------------------------------------------|
D|-----------------------------------------------------------------|
A|-6-6-6-6-6-6-6-6-6-6-6-6-4-4-4-4-2-2-2-2-2-2-2-2-----------------|
E|-------------------------------------------------2-2-2-2-1-1-1-1-|

PRECHORUS

G|------------------------------------------------------------|
D|------------------------------------------------------------|
A|-6-6-6-6-6-6-6-6-6-6-6-6-6-6-6-6-6-6-6-6-6-6-6-6--4-4--2-2--|
E|------------------------------------------------------------|

CHORUS

G|-----------------------------------------------------------------|
D|-4-4-4-4-4-4-4-4-4-4-4-4-4-4-4-4---------------------------------|
A|---------------------------------6-6-6-6-6-6-6-6-2-2-2-2-2-2-2-2-|
E|-----------------------------------------------------------------|

G|-----------------------------------------------------------------|
D|-4-4-4-4-4-4-4-4-4-4-4-4-4-4-4-4---------------------------------|
A|---------------------------------6-6-6-6-6-6-6-6-2-2-4-4-6-6-8-8-|
E|-----------------------------------------------------------------|

G|-----------------------------------------------------------------|
D|-4-4-4-4-4-4-4-4-4-4-4-4-4-4-4-4---------------------------------|
A|---------------------------------6-6-6-6-6-6-6-6-2-2-2-2-2-2-2-2-|
E|-----------------------------------------------------------------|

G|-----------------------------------------------------------------|
D|-----------------------------------------------------------------|
A|---------------------------------6-6-6-6-6-6-6-6-4-4-4-4-4-4-4-4-|
E|-2-2-2-2-2-2-2-2-2-2-2-2-2-2-2-2---------------------------------|

INTERLUDE

G|-----------------------------------------------------------------|
D|-----------------------------------------------------------------|
A|-7-7-7-7-7-7-7-7-7-7-7-7-4-4-4-4-2-2-2-2-2-2-2-2-2-2-2-2-1-1-1-1-|
E|-----------------------------------------------------------------|

G|---------------------------------------------------------------|
D|---------------------------------------------------------------|
A|---------------------------------2-2-2-2-2-2-2-2-2-2-2-2-2/12-|
E|-4-4-4-4-4-4-4-4-2-2-2-2-2-2-2-2-------------------------------|

BRIDGE

G|-----------------------------------------------------------------|
D|-4-4-4-4-4-4-4-4-4-4-4-4-4-4-4-4---------------------------------|
A|---------------------------------6-6-6-6-6-6-6-6-2-2-2-2-2-2-2-2-|
E|-----------------------------------------------------------------|

OUTRO CHORUS

G|-----------------------------------------------------------------|
D|-----------------------------------------------------------------|
A|---------------------------------6-6-6-6-6-6-6-6-2-2-2-2-2-2-2-2-|
E|-2-2-2-2-2-2-2-2-2-2-2-2-2-2-2-2---------------------------------|

G|-----------------------------------------------------------------|
D|---------4-4-4-4-------------------------------------------------|
A|---------------------------------6-6-6-6-6-6-6-6-2-2-2-2-2-2-2-2-|
E|-2-2-2-2---------2-2-2-2-2-2-2-2---------------------------------|

G|-----------------------------------------------------------------|
D|-----------------------------------------------------------------|
A|---------------------------------6-6-6-6-6-8-8-9-2-2-2-2-2-2-2-2-|
E|-2-2-2-2-2-2-2-2-2-2-2-2-2-2-2-2---------------------------------|

G|-----------------------------------------------------------------|
D|-4-4-4-4-4-4-4-4-4-4-4-4-4-4-4-4---------------------------------|
A|---------------------------------6-6-6-6-6-6-6-6-4-4-4-4-4-4-4-4-|
E|-----------------------------------------------------------------|

G|-----------------------------------------------------------------|
D|---------4-4-4-4---------4-4-4-4---------------------------------|
A|---------------------------------6-6-6-6-6-6-6-6-4-4-4-4-4-4-4-4-|x2
E|-2-2-2-2---------2-2-2-2-----------------------------------------|

G|-----------------------------------------------------------------|
D|---------4-4-4-4---------4-4-4-4---------------------------------|
A|---------------------------------6-6-6-6-6-8-8-9-4-4-4-4-4-4-4-4-|
E|-2-2-2-2---------2-2-2-2-----------------------------------------|

G|-----------------------------------------------------------------|
D|---------4-4-4-4---------4-4-4-4---------------------------------|
A|---------------------------------6-6-6-6-6-6-6-6-4-4-4-4-4-4-4-4-|
E|-2-2-2-2---------2-2-2-2-----------------------------------------|

G|---|
D|---|
A|---|
E|-2-|
Author/Artist: Alkaline Trio
Title: Queen Of Pain
Album: Alkaline Trio/Hot Water Music Split
Transcribed by: Jim Taone
Email: j_bro124@hotmail.com

This is a song off the upcoming HWM/Alk3 split, you
can get the mp3 at jadetree.com... there's 2 guitar parts
in this at certain times, and the timing in the tab
isn't perfect, but the 2 parts end on the same chord, so..

enjoy,
jim


Intro:
(guitar 1)
---------------------------------------------|
---------------------------------------------|
-8-8-8-8-8-8-8-8--6-6-6-6--4-4-4-4-4-4-4-4---|
-8-8-8-8-8-8-8-8--6-6-6-6--4-4-4-4-4-4-4-4---|
-6-6-6-6-6-6-6-6--4-4-4-4--2-2-2-2-2-2-2-2---|
---------------------------------------------|

--------------------------------|
--------------------------------|
----------------------------4---|
-8-8-8-8--6-6-6-6--8-8-8-8--4---|
-8-8-8-8--6-6-6-6--8-8-8-8--2---|
-6-6-6-6--4-4-4-4--6-6-6-6------|

Intro:
(guitar 2)
----------------------------------------------------------|
----------------------------------------------------------|
----------------------------------------------------------|
--------11-11-11-9-9-9-8-8-8---------11-11-11-9-9-9-8-8-8-|
-6-6-6----------------------------------------------------|
------------------------------7-7-7-----------------------|

--------------------------------|
--------------------------------|
----------------------------4---|
-------11-11-11-9-9-9-8-8-8-4---|
-6-6-6----------------------2---|
--------------------------------|


Verse 1 opening:
--------------------------------|
--------------------------------|
-8-8-8-8-8-8-8-8---6-6-----4----|
-8-8-8-8-8-8-8-8---6-6-----4----|
-6-6-6-6-6-6-6-6---4-4-----2----|
--------------------------------|


Post verse:
(guitar 1)
----------------------------------------------------|
----------------------------------------------------|
-8-8-8-8-8-8-8--6-6-6-6--4-4-4-4-4-4--6-6-6-6---8---|
-8-8-8-8-8-8-8--6-6-6-6--4-4-4-4-4-4--6-6-6-6---8---|
-6-6-6-6-6-6-6--4-4-4-4--2-2-2-2-2-2--4-4-4-4---6---|
----------------------------------------------------|

Post verse:
(guitar 2)
------------------------------------------------------------|
------------------------------------------------------------|
---------------------------------------------------------8--|
-------11-11-11-9-9-9-8-8-8--------11-11-11-9-9-9-8-8-8--8--|
-6-6-6---------------------------------------------------6--|
-----------------------------7-7-7--------------------------|


Pre-chorus:
--------------------------------|
--------------------------------|
-8-8-8-8-8-8-8-8---6-6---4-4----|
-8-8-8-8-8-8-8-8---6-6---4-4----|
-6-6-6-6-6-6-6-6---4-4---2-2----|
--------------------------------|


Chorus:
---------------------------------------------------------|
---------------------------------------------------------|
-----------------------------8-8-8--8-8-8--4-4-4--4-4-4--|
-4-4-4--4-4-4--4-4-4--4-4-4--8-8-8--8-8-8--4-4-4--4-4-4--|
-4-4-4--4-4-4--4-4-4--4-4-4--6-6-6--6-6-6--2-2-2--2-2-2--|
-2-2-2--2-2-2--2-2-2--2-2-2------------------------------|
play above riff 3x then below riff once
---------------------------------------------------------|
---------------------------------------------------------|
-----------------------------8-8-8--8-8-8--6-6-6--6-6-6--|
-4-4-4--4-4-4--4-4-4--4-4-4--8-8-8--8-8-8--6-6-6--6-6-6--|
-4-4-4--4-4-4--4-4-4--4-4-4--6-6-6--6-6-6--4-4-4--4-4-4--|
-2-2-2--2-2-2--2-2-2--2-2-2------------------------------|


Bridge:
---------------------------------------------------------|
---------------------------------------------------------|
-----------------------------8-8-8--8-8-8--6-6-6--6-6-6--|
-4-4-4--4-4-4--4-4-4--4-4-4--8-8-8--8-8-8--6-6-6--6-6-6--|
-4-4-4--4-4-4--4-4-4--4-4-4--6-6-6--6-6-6--4-4-4--4-4-4--|
-2-2-2--2-2-2--2-2-2--2-2-2------------------------------|



Outro:
(guitar 1)
---------------------------------------|
---------------------------------------|
-------------------8-8-8-8---6-6-6-6---|
-4-4-4-4-4-4-4-4---8-8-8-8---6-6-6-6---|
-4-4-4-4-4-4-4-4---6-6-6-6---4-4-4-4---|
-2-2-2-2-2-2-2-2-----------------------|

---------------------------------------|
---------------------------------------|
-------------------8-8-8-8---6-6-6-6---|
-4-4-4-4-4-4-4-4---8-8-8-8---6-6-6-6---|
-4-4-4-4-4-4-4-4---6-6-6-6---4-4-4-4---|
-2-2-2-2-2-2-2-2-----------------------|

Outro:
(guitar 2)
-----------------------------------------------------------|
-----------------------------------------------------------|
-----------------------------------------------------------|
-------11-11-11-9-9-9-8-8-8--------11-11-11-9-9-9-8-8-9-8--|
-9-9-9-----------------------6-6-6-------------------------|
-----------------------------------------------------------|

-----------------------------------------------------------|
-----------------------------------------------------------|
-----------------------------------------------------------|
-------11-11-11-9-9-9-8-8-8--------11-11-11-9-9-9-8-8-9-8--|
-9-9-9-----------------------6-6-6-------------------------|
-----------------------------------------------------------|


End song with this chord:
-----|
-----|
-----|
--4--|
--4--|
--2--|



Songflow:
Intro 2x
Verse 1 Opening
Post Verse 2x
Pre-Chorus
Chorus
Intro
Pre-Chorus
Chorus
Bridge 2x
Chorus
Outro 2x


Questions, comments, corrections... e-mail me at j_bro124@hotmail.com