Alkaline Trio — San Francisco

Band - Alkaline Trio
Song - San Francisco
Album - Goddamnit
Tabber - Meee! *a.k.a Tsunami bomB*

This song is so rad people. Im pretty sure with most of this. There are a
couple fills here and there, but this works out fine for me.

Intro
G|-----------------------------------------------------------|
D|---------------------------7-7-6---7-7-6---7-7-6---7-7-6---|
A|-7-7-7-7-7-7-7-7-11-11-9-9-------9-------9-------9-------9-|
E|-----------------------------------------------------------|

Verse
G|------------------------------------------------------|---9-9/11/9-|
D|-----------------------2/7----------------------------|-7----------|
A|------0--0-4-4-2-4-4-2-----4-4-2-4-4-2------0--0-4-2-0|------------|
E|-0--0----------------------------------0--0-----------|------------|
*Play the end part only at end of first verse

Interlude
G|---------------------------------|
D|---------------------------------|
A|---------0-0-0-0-4-4-4-4-2-2-2-2-|
E|-0-0-0-0-------------------------|

Chorus
G|---------------------------------|------------------------------------------|
D|---------------------------------|------------------------------------------|
A|---------------------------------|-7-7-7-7-7-7-7-7-7-4-4-4-4-2-2-2-2-0(ring)|
E|-0-0-0-0-0-0-0-0-4-4-4-4-7-7-7-7-|------------------------------------------|
Play the first part twice and then the next part. Also, there is a fill after
the open note. I play A|0 then D|7 a few times.

Order:
Intro x4
Verse
Interlude
Verse
Chorus x2
Intro x2
Verse
Interlude
Verse
Chorus x4

That's it! There are a couple fills here and there, if you're that serious go
for it. But I play this and it works for me.