Alkaline Trio — Snake Oil Tanker

На этой странице Вы можете ознакомиться с 3 версиями подбора аккордов для гитары к песне "Snake Oil Tanker" группы (исполнителя) "Alkaline Trio".

Alkaline Trio - Snake Oil Tanker
Tabbed By: Chris
EMail: pnutbutter311@netscape.net


This is the intro...I did my best with the timing of it

G---------------------------------------------------------------------------
D---------------------------------------------------------------------------
A------------------------------------------------5--------------------------
E--5--555--555--55--77--5--555--5-------------------------------------------

Heres where the lyrics come in (This time you've......)
Again listen to the song for timing (Do this 2x)

G---------------------------------------------------------------------------
D-----------------------------------44444---77777---------------------------
A-----------------55555555-----------------------------5555---7777----------
E-22222222------------------------------------------------------------------

Heres the tough chorus bass, good luck, do this 2x also
(I know that you wish I was dead.....)
G---------------------------------------------------------------------------
D------------------------------------------4--------------------------------
A----------5-4-5-7-7-5-4-0------------4-------------------------------------
E-55555555--------------------22222--------------2222--0000-----------------

Ending part
G---------------------------------------------------------------------------
D---------------------------------------------------------------------------
A----5--4--2----------------------------------------------------------------
E---------------2--4--5-----------------------------------------------------

Well good luck, everything is there you just gotta listen to the song to find
out what goes where. Any questions or comments e-mail me. Thanx!
Song: Snake Oil Tanker
Artist: Alkaline Trio
Album: Maybe I'll Catch Fire (Bonus Track)

Tuning: Standard (EADGBe)

I don't think this is the official way, but it means you don't
have to change the tuning on your guitar. I can't guarantee
it's right cos the guitar is really unclear on this song, but I
think this is more accurate than the other version.

Intro:
e|-------------------------------|
B|-------------------------------|
G|-2---2---2---------2---2---72-|
D|-2---2---2---2-2---2---2---72-|
A|-0---0---0---2-2---0---0---5-|
E|-------------0-0---------------|

Verse:
e|---------------------------------------|
B|-----3-------3-----------3-------3-----|
G|-----2-------2-----------2-------2-----|
D|-4---0---4---0---2---4---0---4---0---2-|
A|-4-------4-------2---4-------4-------2-|
E|-2-------2-------0---2-------2-------0-|
(Play 8 of each chord covering E,A + D)

Chorus:
e|-------------------------------------------------------|
B|-------------------------------------------------------|
G|-2-2-2-2-2-2-2-6---2-2-2-2-2-2-2-6---------------------|
D|-2-2-2-2-2-2-2-6---2-2-2-2-2-2-2-6---4-4-4-4---2-2-2-2-|
A|-0-0-0-0-0-0-x-4---0-0-0-0-0-0-x-4---4-4-4-4---2-2-2-2-|
E|-------------4-----------------4-----2-2-2-2---0-0-0-0-|

Bridge:
e|-------------------------------|
B|-------------------------------|
G|-2---2---2---------2---2---72-|
D|-2---2---2---2-2---2---2---72-|
A|-0---0---0---2-2---0---0---5-|
E|-------------0-0---------------|
PM PM PM PMPM PM PM

Verse 2:
e|----------------------------------------|
B|---------------------------3----------3-|
G|---------------------------2----------2-|
D|-4----------x//----------0----------0-|
A|-4--------------------------------------|
E|-2--------------------------------------|
PM

Chorus:
e|-------------------------------------------------------|
B|-------------------------------------------------------|
G|-2-2-2-2-2-2-2-6---2-2-2-2-2-2-2-6---------------------|
D|-2-2-2-2-2-2-2-6---2-2-2-2-2-2-2-6---4-4-4-4---2-2-2-2-|
A|-0-0-0-0-0-0-x-4---0-0-0-0-0-0-x-4---4-4-4-4---2-2-2-2-|
E|-------------4-----------------4-----2-2-2-2---0-0-0-0-|

Outro:
e|------------------------------------------|
B|------------------------------------------|
G|-2---2---2---------2---2---7-6-4----------|
D|-2---2---2---2-2---2---2---7-6-4-4-6-71p-|
A|-0---0---0---2-2---0---0---5-4-2-4-6-71p-|
E|-------------0-0-----------------2-4-5--|

| / slide up
| slide down
| p pull-off
| PM palm-mute
| x scrape along string

Ps the scraping bit won't work with acoustics

enjoy xxx
Alkaline Trio - Snake Oil Tanker
Tabbed By: Chris
EMail: pnutbutter311@netscape.net


Chords
F# D E* A C# E
|-------------------------------------------------------|
|-------------------------------------------------------|
|-------7----9---------6-------------------------------------|
|--4----7----9----7----6----2--------------------------------|
|--4----5----7----7----4----2--------------------------------|
|--2--------------5---------0--------------------------------|


Intro
|------------------------------------------------------------|
|------------------------------------------------------------|
|--------------------------------------------------------7---|
|-7-x-x-7-7-x-x-7-7-x-x-7-9-9----7-x-x-7-7-x-x-7-7-x-x-7-7---|
|-7-x-x-7-7-x-x-7-7-x-x-7-9-9----7-x-x-7-7-x-x-7-7-x-x-7-5---|
|-5-x-x-5-5-x-x-5-5-x-x-5-7-7----5-x-x-5-5-x-x-5-5-x-x-5-----|

F# D F# D E*
this time you've dug yourself an anchor too heavy to move ahead with

F# D
resembling a faker charming snake oil tankers,

F# D
don't let them strike you down

A
i know that you wish i was dead,

C# F# E
i know cuz you told me last weekend,

A C# F# E
and Christmas has never felt colder, ive never felt colder

A B A D

F# D F# D E*
this time you've dug yourself an anchor too heavy to move ahead with

F# D
resembling a faker charming snake oil tankers,

F# D
don't let them strike you down

A
i know that you wish i was dead,

C# F# E
i know cuz you told me last weekend,

A C# F# E
and Christmas has never felt colder, i haven't felt colder since

|------------------------------------------------------------|
|------------------------------------------------------------|
|----------------------------------------------7-6-4---------|
|-7-x-x-7-7-x-x-7-7-x-x-7-9-9----7-x-x-7-7-x-x-7-6-4-4-6-7---|
|-7-x-x-7-7-x-x-7-7-x-x-7-9-9----7-x-x-7-7-x-x-5-4-2-4-6-7---|
|-5-x-x-5-5-x-x-5-5-x-x-5-7-7----5-x-x-5-5-x-x-------2-4-5---|