Alkaline Trio — Southern Rock

----------------------------------------------------------------------------
SOUTHERN ROCK - Alkaline Trio
----------------------------------------------------------------------------



Verse
e|---------------------------------------------------------------------------|
B|---------------------------------------------------------------------------|
G|---------------------------------9------------------------------------9----|
D|-----6-----7-----9-----7-----6---9--------6-----7-----9-----7-----6---9----|
A|-0-0---0-0---0-0---0-0---0-0-----7----0-0---0-0---0-0---0-0---0-0-----7----|
E|---------------------------------------------------------------------------|

e|---------------------------------------------------------------------------|
B|---------------------------------------------------------------------------|
G|---------------------------------9-----------------------------------------|
D|-----6-----7-----9-----7-----6---9--------6-----7-----9-9-9-9-9-9-9-9------|
A|-0-0---0-0---0-0---0-0---0-0-----7----0-0---0-0---0-0----------------------|
E|---------------------------------------------------------------------------|

Chorus
e|---------------------------------------------------------------------------|
B|---------------------------------------------------------------------------|
G|-9---8----------x3-----------8---------------------------------------------|
D|-9---8---6--9----------------8--6--7--9------------------------------------|
A|-7---6---6--9----------------6--6--7--9------------------------------------|
E|---------4--7-------------------4--5--7------------------------------------|

Solo
e|---------------------------------------------------------------------------|
B|---------------------------------------------------------------------------|
G|---------------x2-------------------------9--------------------------------|
D|-9/11-9/7-7/9---------9999999999999999999-9-(play this several times)------|
A|------------------------------------------7--------------------------------|
E|---------------------------------------------------------------------------|
PM.......................
Outro
e|---------------------------------------------------------------------------|
B|---------------------------------------------------------------------------|
G|-------9---------------x5--------------------------------------------------|
D|---9---9---6---7---9-------------------2-----------------------------------|
A|---9---7---6---7---9----------End on---2----------2/7----------------------|
E|---7-------4---5---7-------------------0-----------------------------------|

Verse
Chorus
Verse
Chorus
Solo
Outro
==============================THE=END==============================