Alkaline Trio — Stupid Kid

На этой странице Вы можете ознакомиться с 5 версиями подбора аккордов для гитары к песне "Stupid Kid" группы (исполнителя) "Alkaline Trio".

Artist: Alkaline Trio 
Title: Stupid Kid
Album: From Here To Infirmary
Tabbed by: Andy Hayes Email: pandobrat@hotmail.com
Intro
G:------------------------------------------|
D:------------------------------------------|
A:-----7-7-7-6-6-6-4-4-------7-7-7-6-6-4-4--| 2x
E:-7-7-------------------4-4----------------|
Verse
G:----------------------|
D:----------------------|
A:----------------------|
E:-7-7---------4-4--2-2-|
Verse
G:----------------------|
D:----------------------|
A:----------------------|
E:-7-7---------4-4--2-2-|
Verse
G:----------------------|
D:----------------------|
A:-----77-5/4-----------|
E:-7-7---------4-4--2-2-|
Verse
G:----------------------|
D:----------------------|
A:----------------------|
E:-7-7---------4-4--2-2-|
After That
G:------------------------------------------|
D:------------------------------------------|
A:-----7-7-7-6-6-6-4-4-------7-7-7-6-6-4-4--| 2x
E:-7-7-------------------4-4----------------|
Chorus
G:---------------------------|
D:---------------------------|
A:-2-x8----------------------|
E:----------4-x4-------2-x4--|
Bridge
G:-------------------------------------------------------|
D:-------------------------------------------------------|
A:-------------------------------------------------------|
E:---7-7-7-7-7-7-7-7-7-7-7-7-7--4-4-4-4-4-4-2-2-2-2-2-2--|

G:------------------------------------------------------|
D:------------------------------------------------------|
A:--------------------------------------7-7-7-6-6-4-4---|
E:-7-7-7-7-7-7-7-7-7-7-7-7-7-4-4-4-4-4------------------|
Intro

e |--------------------------------------------
b |--------------------------------------------
g |--4444-9999-8888-6666-------9999-8888-6666--
d |--4444-xxxx-xxxx-xxxx--6666-xxxx-xxxx-xxxx--
a |--2222-7777-6666-4444--6666-7777-6666-4444--
e |-----------------------4444-----------------

Verse

e |------------------
b |------------------
g |--4444------------
d |--4444-4444-2222--
a |--2222-4444-2222--
e |-------2222-0000--

Chorus

e |---------------------- --------------
b |---------------------- --------------
g |--44444444------------ -----------4--
d |--44444444-6666-4444-- on last time play --2--4--4--4--
a |--22222222-6666-4444-- --2--4--4--2--
e |-----------4444-2222-- --0--2--2-----

Bridge

e |-------------------------------------
b |--------------------------------------
g |--444444444444-33333/44444444-99-88-66
d |--xxxxxxxxxxxx-xxxxx/xxxxxxxx-xx-xx-xx
a |--222222222222-11111/22222222-77-66-44
e |--------------------------------------

Order

Intro 2x
Verse 4x
Intro 2x
Verse 4x
Chorus 3x
Intro 2x
Verse 4x
Chorus 3x
Intro 2x
Bridge 1x
Chorus 3x

tabbed by lead guitar player from twenty pence refund
www.20prefund.5u.com
band : Alkaline trio
song: Stupid Kid
Album: from here to infirmary


Here is the riff, with good chords and good rythm, the rest should be good on the over
tabs, just dont forget the 2 on the


-2-
-x-
-4-
-4-
-2-
---



* * * * * * * *
|-2-2-2-2---------------------------------------------------------|
|-x-x-x-x---------------------------------------------------------|
|-4-4-4-4---4/9---8-8-8-8-8-6-6-6-----------6/9---8-8-8-8-8-6-6-6-|
|-4-4-4-4---x-x---x-x-x-x-x-x-x-x-6-6-6-6---x-x---x-x-x-x-x-x-x-x-|
|-2-2-2-2---2/7---6-6-6-6-6-4-4-4-6-6-6-6---4/7---6-6-6-6-6-4-4-4-|
|---------------------------------4-4-4-4-------------------------|


tabbed by Toto Joe therealtotojoe@hotmail.com
Artist - Alkaline Trio
Song - Stupid Kid
Album - From Here to Infirmary
Tabbed by - Peter Blair
Email - peter@the-guild.freeserve.co.uk


Intro:

-----------------------------------------------------|
-----------------------------------------------------|
-4-4-4-4---9-9--8-8--6-6--------------9-9--8-8--6-6--|
-4-4-4-4---x-x--x-x--x-x----6-6-6-6---x-x--x-x--x-x--|
-2-2-2-2---7-7--6-6--4-4----6-6-6-6---7-7--6-6--4-4--|
----------------------------4-4-4-4------------------|

Verse:

------------------------------------------|
------------------------------------------|
-4-----------------------4----------------| X 4
-4-------4-4------2-2----4----------------|
-2-------4-4------2-2----2----------------|
---------2-2------0-0---------------------|

Interlude:

---------------------------------------------------|
---------------------------------------------------|
-4-4-4---9-9--8-8--6-6--------------9-9--8-8--6-6--| X2
-4-4-4---x-x--x-x--x-x----6-6-6-6---x-x--x-x--x-x--|
-2-2-2---7-7--6-6--4-4----6-6-6-6---7-7--6-6--4-4--|
--------------------------4-4-4-4------------------|

Verse 2:

------------------------------------------|
------------------------------------------|
-4-----------------------4----------------| X 4
-4-------4-4------2-2----4----------------|
-2-------4-4------2-2----2----------------|
---------2-2------0-0---------------------|

Chorus:

---------------------------------------|
---------------------------------------|
-4--------------------4----------------| X 2
-4-------6-----4------4----------------|
-2-------6-----4------2----------------|
---------4-----2-----------------------|

---------------------------------------|
---------------------------------------|
-4-------------------------------------|
-4-------6-----4------2----------------|
-2-------6-----4------2----------------|
---------4-----2------0----------------|

Verse 3:

------------------------------------------|
------------------------------------------|
-4-----------------------4----------------| X 4
-4-------4-4------2-2----4----------------|
-2-------4-4------2-2----2----------------|
---------2-2------0-0---------------------|

Chorus:

---------------------------------------|
---------------------------------------|
-4--------------------4----------------| X 2
-4-------6-----4------4----------------|
-2-------6-----4------2----------------|
---------4-----2-----------------------|

---------------------------------------|
---------------------------------------|
-4-------------------------------------|
-4-------6-----4------2----------------|
-2-------6-----4------2----------------|
---------4-----2------0----------------|

Interlude:

---------------------------------------------------|
---------------------------------------------------|
-4-4-4---9-9--8-8--6-6--------------9-9--8-8--6-6--| X2
-4-4-4---x-x--x-x--x-x----6-6-6-6---x-x--x-x--x-x--|
-2-2-2---7-7--6-6--4-4----6-6-6-6---7-7--6-6--4-4--|
--------------------------4-4-4-4------------------|

Bridge:

---------------------------|
---------------------------|
-4-4-4-4---9-9--8-8--6-6---|
-4-4-4-4---x-x--x-x--x-x---|
-2-2-2-2---7-7--6-6--4-4---|
---------------------------|

Final Chorus:

---------------------------------------|
---------------------------------------|
-4--------------------4----------------| X 3
-4-------6-----4------4----------------|
-2-------6-----4------2----------------|
---------4-----2-----------------------|
-------------------------------------------------------------------------------
Stupid Kid – Alkaline Trio
-------------------------------------------------------------------------------

The rhythm isn’t showed very well but if you listen to the song you will be
able to figure it out it’s very easy and Alkaline Trio rule!

INTRO
e|-X-X---------------------------------|
B|-X-X---------------------------------|
G|-X-X-444--99-88-66-------99-88-66----|
D|-X-X-444--xx-xx-xx--666--xx-xx-xx----|
A|-X-X-222--77-66-44--666--77-66-44----|
E|-X-X----------------444--------------|

VERSE
e|-------------------------|
B|-------------------------|
G|-4444--------------------|
D|-4444--4444--22222-------|
A|-2222--4444--22222-------|
E|-------2222--00000-------|

CHORUS
e|-------------------------------------|
B|-------------------------------------|
G|-444444444---------------------------|
D|-444444444--6666666--444444444-------|
A|-222222222--6666666--444444444-------|
E|------------4444444--222222222-------|

POST CHORUS
e|---------------|
B|---------------|
G|--------4------|
D|-4---2--4------|
A|-4---2--2------|
E|-2---0---------|

INTERLUDE
e|------------------------------------------------------------------|
B|------------------------------------------------------------------|
G|-4444444444--33333333-4444444444--999999--88888888--66666666------|
D|-xxxxxxxxxx--xxxxxxxx-xxxxxxxxxx--xxxxxx--xxxxxxxx--xxxxxxxx------|
A|-2222222222--11111111-2222222222--777777--66666666--44444444------|
E|------------------------------------------------------------------|


Intro x2
VERSE x4
INTRO x2
VERSE x4
CHORUS x3
POST CHORUS
INTRO x2
VERSE x4
CHORUS x3
POST CHORUS
INTRO x2
INTERLUDE
CHORUS x3
END ON POST CHORUS!

===============================================================================