Alkaline Trio — This Could Be Love

На этой странице Вы можете ознакомиться с 3 версиями подбора аккордов для гитары к песне "This Could Be Love" группы (исполнителя) "Alkaline Trio".

Band: Alkaline Trio
Song: This Could Be Love
Album: Good Mourning
Tab: Guitar
Tabed By: kenny fabritius


hi- ok... see, there are about 3 or four changes in the verses, and a finale that is a littel different
from the refrain. So, i decided to tab out the entire song, just to avoid confusion... really only the verses
and ending had to be tabbed out but still, i thought this would be much easier to understand and much more concise.
Well enjoy... and please rate this tab. if there are any questions contact me @ kenneth.r.fabritius@attglobal.net

it doesn't matter to me cuz i know i'm right- but rate thses tabs if u so choose...

have fun... kenny.




Key:
/=slide
=up stroke
)))=echo or let ring
x=single note muted
P=palm muted
S=quick stop
PC/=pick slide
F=folk strumming
H=hard or heavey strumming




intro
E-------------------------------------------------------------------------------------------------------------------------------]
A-44xxxxxx-44xxxxxx----------44xxxxxx-44xxxxxx----------44xxxxxx-44xxxxxx----------44xxxxxx-44xxxxxx----------------------------]
D-66xxxxxx-66xxxxxx----------66xxxxxx-66xxxxxx----------66xxxxxx-66xxxxxx----------66xxxxxx-66xxxxxx----------44xxxxxx-44xxxxxx-]
G-66444444-66444444----------66444444-66444444----------66444444-66444444----------66444444-66444444----------66xxxxxx-66xxxxxx-]
B---444444---444444------------444444---444444------------444444---444444------------444444---444444------------444444---444444-]
E---445544---445544------------445544---445544------------445544---445544------------445544---445544------------445544---445544-]




verse I
E-----------------------P55555555-----P22222222---------------------------P55555555-----P22222222-----x-x-x-x--------P55555555-
A-P4444444444444444-----P77777777-----P44444444-----P4444444444444444-----P77777777-----P44444444-----4-4-4-4-S-----P77777777-
D-P6666666666666666-----P77777777-----P44444444-----P6666666666666666-----P77777777-----P44444444-----6-6-6-6-s-----P77777777-
G-P6666666666666666---------------------------------P6666666666666666---------------------------------6-6-6-6-s---------------
B-----------------------------------------------------------------------------------------------------4-4-4-4-s---------------
E-----------------------------------------------------------------------------------------------------4-4-4-4-s---------------

-----P22222222-----|---------------------------p55555555-----H22222222-----]
-----P44444444-----|-----p4444444444444444-----p77777777-----H44444444-----]
-----P44444444-----|-----p6666666666666666-----p77777777-----H44444444-----]
-------------------|-----p6666666666666666---------------------------------]
-------------------|-------------------------------------------------------]
-------------------|-------------------------------------------------------]




transition I
E-----------------------------------------------------------------------------------------------------------------]
A-----44xxxxxx-44xxxxxx----------44xxxxxx-44xxxxxx----------44xxxxxx-44xxxxxx----------44xxxxxx-44xxxxxx----------]
D-----66xxxxxx-66xxxxxx----------66xxxxxx-66xxxxxx----------66xxxxxx-66xxxxxx----------66xxxxxx-66xxxxxx----------]
G-----66444444-66444444----------66444444-66444444----------66444444-66444444----------66444444-66444444----------]
B-------444444---444444------------444444---444444------------444444---444444------------444444---444444----------]
E-------445544---445544------------445544---445544------------445544---445544------------445544---445544----------]




verse II
E-----------------------P55555555-----P22222222---------------------------P55555555-----P22222222-----x-x-x-x-------P55555555-
A-P4444444444444444-----P77777777-----P44444444-----P4444444444444444-----P77777777-----P44444444-----4-4-4-4-s----P77777777-
D-P6666666666666666-----P77777777-----P44444444-----P6666666666666666-----P77777777-----P44444444-----6-6-6-6-s----P77777777-
G-P6666666666666666---------------------------------P6666666666666666---------------------------------6-6-6-6-s--------------
B-----------------------------------------------------------------------------------------------------4-4-4-4-s--------------
E-----------------------------------------------------------------------------------------------------4-4-4-4-s--------------

-----P22222222-----|----------------------------------H2-H2-H2-H2-----]
-----P44444444-----|-----2----------------------------H4-H4-H4-H4-----]
-----P44444444-----|-------6/7-9-7/6-7-6-4-6-2)))-----H4-H4-H4-H4-----]
-------------------|--------------------------------------------------]
-------------------|--------------------------------------------------]
-------------------|--------------------------------------------------]




refrain I
E-H0000000000000000--------------------------------------------------------------------------------------------------------------
A-H2222222222222222-----H00000000-----H22222222/7777777777777777-----H00000000-----H22222222-----H7777777777777777-----H00000000-
D-H2222222222222222-----H22222222-----H44444444/9999999999999999-----H22222222-----H44444444-----H9999999999999999-----H22222222-
G-----------------------H22222222-----H44444444/9999999999999999-----H22222222-----H44444444-----H9999999999999999-----H22222222-
B--------------------------------------------------------------------------------------------------------------------------------
E--------------------------------------------------------------------------------------------------------------------------------

-----------------------------------------------------------------------------------------]
-----H22222222-----0)))-----P-----2)))-----P-----0)))-----P-----H2222222222222222-----]
-----H44444444-----2)))-----P-----4)))-----P-----2)))-----P-----H4444444444444444-----]
-----H44444444-----2)))-----P-----4)))-----P-----2)))-----P-----H4444444444444444-----]
-----------------------------------------------------------------------------------------]
-----------------------------------------------------------------------------------------]




transition II
E-----------------------------------------------------------------------------------------------------------------]
A-----44xxxxxx-44xxxxxx----------44xxxxxx-44xxxxxx----------44xxxxxx-44xxxxxx----------44xxxxxx-44xxxxxx----------]
D-----66xxxxxx-66xxxxxx----------66xxxxxx-66xxxxxx----------66xxxxxx-66xxxxxx----------66xxxxxx-66xxxxxx----------]
G-----66444444-66444444----------66444444-66444444----------66444444-66444444----------66444444-66444444----------]
B-------444444---444444------------444444---444444------------444444---444444------------444444---444444----------]
E-------445544---445544------------445544---445544------------445544---445544------------445544---445544----------]




verse III
E-----------------5)))-----2)))-----------------5)))-----2)))-----x-x-x-x--------P55555555-----P22222222-----
A-----4)))))------7)))-----4)))-----4))))))-----7)))-----4)))-----4-4-4-4-s-----P77777777-----P44444444-----
D-----6)))))------7)))-----4)))-----6))))))-----7)))-----4)))-----6-6-6-6-s-----P77777777-----P44444444-----
G-----6)))))------------------------6))))))-----------------------6-6-6-6-s---------------------------------
B-----------------------------------------------------------------4-4-4-4-s---------------------------------
E-----------------------------------------------------------------4-4-4-4-s---------------------------------

------------------------------------------]
-----2----------------------------PC/-----]
-------6/7-9-7/6-7-6-4-6-2)))-----PC/-----]
----------------------------------PC/-----]
------------------------------------------]
------------------------------------------]




refrain II
E--H0000000000000000--------------------------------------------------------------------------------------------------------------
A--H2222222222222222-----H00000000-----H222222227777777777777777-----H00000000-----H22222222-----H7777777777777777-----H00000000-
D--H2222222222222222-----H22222222-----H444444449999999999999999-----H22222222-----H44444444-----H9999999999999999-----H22222222-
G------------------------H22222222-----H444444449999999999999999-----H22222222-----H44444444-----H9999999999999999-----H22222222-
B---------------------------------------------------------------------------------------------------------------------------------
E---------------------------------------------------------------------------------------------------------------------------------

-----------------------------------------------------------------------------------]
---H22222222-----0)))-----P-----2)))-----P-----0)))-----P-----H2222222222222222-]
---H44444444-----2)))-----P-----4)))-----P-----2)))-----P-----H4444444444444444-]
---H44444444-----2)))-----P-----4)))-----P-----2)))-----P-----H4444444444444444-]
-----------------------------------------------------------------------------------]
-----------------------------------------------------------------------------------]




bridge
E---0)------P44444444-P55555555---0)-----P44444444-P55555555----0)-----P44444444-P55555555----0)------P55555555-------------]
A---0)))----P66666666-P77777777---0)))---P66666666-P77777777----0)))---P66666666-P77777777----0)))----P77777777---------PC/-]
D---2)))----P66666666-P77777777---2)))---P66666666-P77777777----2)))---P66666666-P77777777----2)))----P77777777-----PC/-----]
G---4)))--------------------------4)))--------------------------4)))--------------------------4)))--------------------------]
B---4)))--------------------------4)))--------------------------4)))--------------------------4)))--------------------------]
E---0)))--------------------------0)))--------------------------0)))--------------------------0)))--------------------------]




refrain III / finale
E-H0000000000000000--------------------------------------------------------------------------------------------------------------
A-H2222222222222222-----H00000000-----H222222227777777777777777-----H00000000-----H22222222-----H7777777777777777-----H00000000-
D-H2222222222222222-----H22222222-----H444444449999999999999999-----H22222222-----H44444444-----H9999999999999999-----H22222222-
G-----------------------H22222222-----H444444449999999999999999-----H22222222-----H44444444-----H9999999999999999-----H22222222-
B--------------------------------------------------------------------------------------------------------------------------------
E--------------------------------------------------------------------------------------------------------------------------------

----------------------------------------------------------------------------------------------------------------------------------
-H22222222-----F0000-----P-----F2222-----P-----F0000-----P-----H2222222222222222/H7777777777777777-----H00000000-----H22222222-
-H44444444-----F2222-----P-----F4444-----P-----F2222-----P-----H4444444444444444/H9999999999999999-----H22222222-----H44444444-
-H44444444-----F2222-----P-----F4444-----P-----F2222-----P-----H4444444444444444/H9999999999999999-----H22222222-----H44444444-
----------------------------------------------------------------------------------------------------------------------------------
----------------------------------------------------------------------------------------------------------------------------------

--------------------------------------------------0)))))---]
H7777777777777777-----H00000000-----H22222222-----2)))))---]
H9999999999999999-----H22222222-----H44444444-----2)))))---]
H9999999999999999-----H22222222-----H44444444-----1)))))---]
--------------------------------------------------0)))))---]
--------------------------------------------------0)))))---]
Song: This Could Be Love
Artist: Alkaline Trio
Tabbed By: Ryan (Atticus_1984@hotmail.com)

Intro (x5)
Guitar 1
e|-----445544-----455544---|
B|---22222222---22222222---|
G|-------------------------|
D|-------------------------|
A|-------------------------|
E|-------------------------|

Guitar 2
After Guitar 1 has played through once
e|-----------------------------------------|
B|-----------------------------------------|
G|-----------------------------------------|
D|---6666777766677777----------------------| x4
A|---4444444444444444--7777777777777777----|
E|---------------------5555555555555555----|

Verse 1 (x4)
e|-----------------------------------------|
B|-----------------------------------------|
G|-----------------------------------------|
D|---6666666666666666----------------------|
A|---4444444444444444-7777777744444444-----|
E|--------------------5555555522222222-----|

Verse 2
Guitar 1 - Same as Verse 1
Guitar 2 (on 4th time round)
e|-----------------------------------------|
B|-----------------------------------------|
G|-----------------------------------------|
D|---7h9--6h7--4h6--2----------------------|
A|-----------------------------------------|
E|-----------------------------------------|

Chorus
e|-----------------------------------------|
B|-----------------------------------------|
G|-----------------------------------------|
D|---9999999966664444----------------------| x3
A|---7777777777777777-7777777799999999-----|
E|--------------------5555555577777777-----|

e|-----------------------------------------|
B|-----------------------------------------|
G|-----------------------------------------|
D|-----------------------------------------|
A|---7----9----7----9999999999999999-------|
E|---5----7----5----7777777777777777-------|

Verse 3
Guitar 1
e|-----------------------------------------|
B|-----------------------------------------|
G|-----------------------------------------|
D|---6~------------------------------------| x2
A|---4~---------------7~------4~-----------|
E|--------------------5~------2~-----------|

e|-----------------------------------------|
B|-----------------------------------------|
G|-----------------------------------------|
D|---6666666666666666----------------------|
A|---4444444444444444-7777777744444444-----|
E|--------------------5555555522222222-----|


Bridge

e|---0~------------------------------------|
B|---0~------------------------------------|
G|---0~------------------------------------|
D|---9~------------------------------------|
A|---7~------------------------------------|
E|---0~------------------------------------|
Let first note ring, palm mute the rest
e|---0-------------------------------------|
B|---0-------------------------------------|
G|---0-------------------------------------|
D|---9999999999999999----------------------| x2
A|---7777777777777777-6666666677777777-----|
E|---0----------------4444444455555555-----|

e|---0-------------------------------------|
B|---0-------------------------------------|
G|---0-------------------------------------|
D|---9999999999999999----------------------| x2
A|---7777777777777777-7777777799999999-----|
E|---0----------------5555555577777777-----|

Final Chorus
e|-----------------------------------------|
B|-----------------------------------------|
G|-----------------------------------------|
D|---9999999966664444----------------------| x3
A|---7777777777777777-7777777799999999-----|
E|--------------------5555555577777777-----|

e|-----------------------------------------|
B|-----------------------------------------|
G|-----------------------------------------|
D|-----------------------------------------|
A|---7777999977777----9999999999999999-----|
E|---5555777755555----7777777777777777-----|

e|-----------------------------------------|
B|-----------------------------------------|
G|-----------------------------------------|
D|---9999999999999999----------------------| x2
A|---7777777777777777-7777777799999999-----|
E|--------------------5555555577777777-----|

e|-----------------------------------------|
B|-----------------------------------------|
G|-----------------------------------------|
D|---9-------------------------------------|
A|---7-------------------------------------|
E|-----------------------------------------|
-------------------------------------------------------------------------------
This Could Be Love (For Fire) – Alkaline Trio
-------------------------------------------------------------------------------

Right just got the new album today and hell yes it’s amazing no less than
I expected! But I love this song it’s a remake of one that never made it
onto from here to infirmary but still awesome, right it looks bare the tab
but everything is there correct!!


Intro riff (played at parts trough out the song!)
e|-----4-4-5-5-4-4--------------------------------|
B|-2-2--------------------------------------------|
G|------------------------------------------------|
D|------------------------------------------------|
A|------------------------------------------------|
E|------------------------------------------------|

Verse chords (played behind the intro and then palm muted during verse
look out for timing)
e|-----------------------------------------------------|
B|-----------------------------------------------------|
G|-66666666-22222222-----------------------------------|
D|-66666666-22222222-44444444--------------------------|
A|-44444444-00000000-44444444--------------------------|
E|-------------------22222222--------------------------|


Chorus (played at end as well)
e|---------------------------------------------------------|
B|---------------------------------------------------------|
G|-9999999999999999----------------------------------------|
D|-9999999999999999-7777777-99999999-----------------------|
A|-7777777777777777-7777777-99999999-----------------------|
E|------------------5555555-77777777-----------------------|
Post chorus
e|-------------------------------------------|
B|-------------------------------------------|
G|-------------------------------------------|
D|-7---9---7---999999999---------------------|
A|-7---9---7---999999999---------------------|
E|-5---7---5---777777777---------------------|

Bridge (palmuted)
e|--------------------------------------------------|
B|--------------------------------------------------|
G|-66666666-----------------------------------------|
D|-66666666-7777777-7777777-------------------------|
A|-44444444-7777777-7777777-------------------------|
E|----------4444444-5555555-------------------------|

Right that’s about it I’m working on more stuff but that’s one of the
stand out tracks to me off the album and thought I’d get it up here
nice and quickly!

E-mail – funkeymonkey10@hotmail.com

===============================================================================