Alkaline Trio — This Is Getting Over You

На этой странице Вы можете ознакомиться с 2 версиями подбора аккордов для гитары к песне "This Is Getting Over You" группы (исполнителя) "Alkaline Trio".

hey guys my name is adam/email is beachrider21@yahoo.com
ive only done a couple of tabs but im confidetn in dis one.
hope u like around the end it wuz heavily distorted but i think its right.L8R
alkaline trio is great
=)

1-----------------------------------------------------------
2-----------------------------------------------------------
3-----------------------------------------------------------
4-12-12-12-xx-12-12-12-12-xx-12-12-12-12xx12-12-12-12-------
5-12-12-12-xx-12-12-12-12-xx-12-12-12-12xx12-12-12-12-------
6-10 10 10-xx-10-10-10-10-xx-10-10-10-10xx10-10-10-10-------

1--------------------------------------
2--------------------------------------
3--------------------------------------
4-9-9-9-xx-9-9-9-xx-7-7-7--12-12x9-9---
5-9-9-9-xx-9-9-9-xx-7-7-7--12-12x9-9---
6-7-7-7-xx-7-7-7-xx-5-5-5--10-10x7-7---
x=mute
// and = slide

|------------------------------|
|------------------------------|
|---7-7-7-7-x-x---7-7-7-7-x-x--|repeat
|------------------------------|
|---5-5-5-5-x-x---5-5-5-5-x-x--|
|------------------------------|

then
|----------------------------------------------------------------|
|-------------(x4)--------------(x2)-----------------------------|
|--7-7-7-7-x-x------11-11-11-11-x-x-------6-6-6-6//9-9-9-9-7-7-|
|----------------------------------------------------------------|
|--5-5-5-5-x-x-------9--9--9--9-x-x-------4-4-4-4//7-7-7-7-5-5-|
|----------------------------------------------------------------|