Alkaline Trio — Trucks And Trains

На этой странице Вы можете ознакомиться с 3 версиями подбора аккордов для гитары к песне "Trucks And Trains" группы (исполнителя) "Alkaline Trio".

-------------------------------------------------------------------------------
Trucks And Trains – Alkaline Trio
-------------------------------------------------------------------------------

One of the best songs off there album from here to infirmary so I thought id
tab it out as it’s quite easy to play! So hope you enjoy and please check
out my other stuff from Alkaline Trio and please rate etc!!!

Intro part1
e|----------------------------------------------------|
B|-12-12-14-14-15-15-17-17-15-15-14-14-15-15-14-14----|
G|----------------------------------------------------|
D|----------------------------------------------------|
A|----------------------------------------------------|
E|----------------------------------------------------|

Intro part2
e|-----------------------------------------------------|
B|-----------------------------------------------------|
G|-11-11-11-11-11-12-12-12-12-12-12-12-12-11-11--------|
D|-----------------------------------------------------|
A|-----------------------------------------------------|
E|-----------------------------------------------------|

Pre Chorus
e|-----------------------|
B|-----------------------|
G|-----------------------|
D|-555555-777777---------|
A|-555555-777777---------|
E|-333333-555555---------|
****** ******

Chorus
e|--------------------------------|
B|--------------------------------|
G|-7777777777---------------------|
D|-7777777777-777-555555555-------|
A|-5555555555-777-555555555-------|
E|------------555-333333333-------|

Post Chorus
e|-------------------------------------|
B|-------------------------------------|
G|-------------------------------------|
D|-7777777777-555555555-7777777--------|
A|-7777777777-555555555-7777777--------|
E|-5555555555-333333333-5555555--------|

Bridge
e|----------------------------------------------|
B|----------------------------------------------|
G|-4444444-22222222-------------------777-------|
D|-4444444-22222222-55555555-55555555-777-------|
A|-2222222-00000000-55555555-55555555-555-------|
E|------------------33333333-22222222-----------|
******* ******** ******** ********

SONG LAYOUT!
Intro part 1
Intro part 2
Intro part 1
Intro part 2
Pre Chorus
Chorus x3
Post Chorus
Intro part 1
Intro part 2
Intro part 1
Intro part 2
Pre Chorus
Chorus x3
Post Chorus
Intro part 1 x4
Bridge x4 (on the forth don’t palm mute!)
Chorus x3
Post Chorus
END ON D

Please rate etc, e-mail funkeymonkey10@hotmail.com
===============================================================================
Alkaline Trio - Trucks And Trains
Tabbed By: Chris
EMail: pnutbutter311@netscape.net


this is the major verse riff
G|-------------------------------------------------------|
D|---------4-----------4---4/5---------------------------|
A|-2-2-2-2---2---2-2-2---2-------------5-----------0-0-0-|
E|-----------------------------3-3-3-3---3--2-3-3--------|

there are a couple variations off this, here are two examples
G|-----------------------------------------------------------|
D|---------4-----------4---4/5-------------------------------|
A|-2-2-2-2---2---2-2-2---2-------------5---5/7--------0-0-0-|
E|-----------------------------3-3-3-3---3------2-3-3--------|
(this variation is used very often)

G|-----------------------------------------------------------|
D|---------4---4-----------4---4/5---------------------------|
A|-2-2-2-2---2---2-2-2-2-2---2-------------5-----------0-0-0-|
E|---------------------------------3-3-3-3---3--2-3-3--------|
(this variation is less common but still something keep your ears open for)

also there are cases where both variations are used in the same riff, like so.
G|---------------------------------------------------------------|
D|---------4---4-----------4---4/5-------------------------------|
A|-2-2-2-2---2---2-2-2-2-2---2-------------5---5/7--------0-0-0-|
E|---------------------------------3-3-3-3---3------2-3-3--------|

when going into the chorus, only play the first half of the riff and then do this
G|---------------------------------|
D|---------------------------------|
A|---------------------------------|
E|-3-3-3-3-3-3-3-3-5-5-5-5-5-5-5-5-|

CHORUS
G|-----------------------------------------------------------------|
D|-----------------------------------------------------------------|
A|-5-5-5-5-5-5-5-5-5-5-5-5-----------------------------------------|x3
E|-------------------------5-5-5-5-3-3-3-3-3-3-3-3-3-3-3-3-3-3-3-3-|

G|-----------------------------------------------------------------|
D|-----------------------------------------------------------------|
A|-----------------------------------------------------------------|
E|-5-5-5-5-5-5-5-5-5-5-5-5-5-5-5-5-3-3-3-3-3-3-3-3-5-5-5-5-5-5-5-5-|

BRIDGE
G|-----------------------------------------------------------------|
D|-----------------------------------------------------------------|
A|-2-2-2-2-2-2-2-2-0-0-0-0-0-0-0-0---------------------------5-5-5-|x3
E|---------------------------------3-3-3-3-3-3-3-3-2-2-2-2-2-------|

G|-----------------------------------------------------------------|
D|-----------------------------------------------------------------|
A|-2-2-2-2-2-2-2-2-0-0-0-0-0-0-0-0---------------------------------|
E|---------------------------------3-3-3-3-3-3-3-3-5-5-5-5-5-5-5-5-|

end on D
Author/Artist: Alkaline Trio
Title: Trucks & Trains
Album: From Here To Infirmary
Transcribed by: Jim Taone
Email: j_bro124@hotmail.com

Yet some more new stuff... I think this song is great if
you're a songwriter you can really appreciate the lyrics
with so much color symbolism... blah blah blah...
jim

p.s. rhythm's might be a lil harder than other trio songs
I suggest playing along w/ the c.d.


Intro
-----------------------------------------------------|
-----------------------------------------------------|
---16-16-18-18-19-19-21-21-19-19-18-18-19-19-18-18---|
---x--x--x--x--x--x--x--x--x--x--x--x--x--x--x--x----|
---14-14-16-16-17-17-19-19-17-17-16-16-17-17-16-16---|
-----------------------------------------------------|

---------------------------------------------|
---------------------------------------------|
--11-11-11-11-11-11-12-12-12-12-11-11-11-----|
--x--x--x--x--x--x--x--x--x--x--x--x--x------|
--9--9--9--9--9--9--10-10-10-10-9--9--9------|
---------------------------------------------|


VERSE HAS NO GUITAR PARTS


Pre-chorus
-------------------------------|
-------------------------------|
-------------------------------|
-------------------------------|
--5-5-5-5-5-5---7-7-7-7-7------|
--3-3-3-3-3-3---5-5-5-5-5------|
p.m.------- p.m.-----


Chorus
--------------------------------------------|
--------------------------------------------|
--7-7-7-7-7-7-7-----------------------------| 3x
--7-7-7-7-7-7-7---7-7-7-7---5-5-5-5-5-5-----|
--5-5-5-5-5-5-5---7-7-7-7---5-5-5-5-5-5-----|
------------------5-5-5-5---3-3-3-3-3-3-----|

On 3rd time end chorus riff with:
----------------------------------------------|
----------------------------------------------|
----------------------------------------------|
--7-7-7-7-7-7-7-7-7-7----5-5-5-5-5---7-7-7-7--|
--7-7-7-7-7-7-7-7-7-7----5-5-5-5-5---7-7-7-7--|
--5-5-5-5-5-5-5-5-5-5----3-3-3-3-3---5-5-5-5--|


Bridge:
-----------------------------------------------------|
-----------------------------------------------------|
--16-16-18-18-19-19-21-21-19-19-18-18-19-19-18-18----| 4x
--x--x--x--x--x--x--x--x--x--x--x--x--x--x--x--x-----|
--14-14-16-16-17-17-19-19-17-17-16-16-17-17-16-16----|
-----------------------------------------------------|


Interlude D
---------------------------------------------------|
---------------------------------------------------|
--------------------------------------------7-7---| 4x
--9-9-9-9-9--7-7-7-7-7--5-5-5-5-5--4-4-4----7-7---|
--9-9-9-9-9--7-7-7-7-7--5-5-5-5-5--4-4-4----5-5---|
--7-7-7-7-7--5-5-5-5-5--3-3-3-3-3--2-2-2-----------|
p.m.----------------------------------


Songflow:
Intro
Pre-chorus
Chorus
Intro
Pre-chorus
Chorus
Bridge
Interlude
Chorus
End on D

Questions, comments, corrections... e-mail me at j_bro124@hotmail.com