Alkaline Trio — Warbrain

На этой странице Вы можете ознакомиться с 3 версиями подбора аккордов для гитары к песне "Warbrain" группы (исполнителя) "Alkaline Trio".

Artist: Alkaline Trio
Title: Warbrain
Album: rock against bush vol. 1
Email: ihave_a_d_d@hotmail.com


Intro/ Main Riff
The only one i've found tabbed, then theres my way.
----------------------------------|
-7---7---7---7---7---7---7---7----|
---4---4--------------------------|
-----------6---6---4---4---4---4--|
----------------------------------|
----------------------------------|

Or, my way which is easier.
just bar A D and G off at 9

e-----------------------------------------------|
B-----------------------------------------------|
G---11---11---11-----11----11---11---11---11----|
D------9----9-----------------------------------|
A-----------------11----11----9----9----9----9--|
E-----------------------------------------------|

Verse
----------------------------------|
----------------------------------|
--------------444-----------------|
--666---222---444---4444444-------|
--666---222---222---4444444-------|
--444---000---------2222222-------|

Prechorus? 3x Chorus
-------------------------|------------------------|---------------------------|
-------------------------|------------------------|---------------------------|
-------------------------|------------------------|---------------------------|
--2222222222-66666-44444-|-2222222222-44444-22222-|--2~-----------------------|
--2222222222-66666-44444-|-2222222222-44444-22222-|--2~-----------------------|
--0000000000-44444-22222-|-0000000000-22222-00000-|--0~-----------------------|

Then just listen to the song for the structure.
#----------------------------------PLEASE NOTE--------------------------------#
#This file is the author's own work and represents their interpretation of the#
#song. You may only use this file for private study, scholarship, or research.#
#-----------------------------------------------------------------------------#
#-- File created with Instab - http://www.pconline.com/~smcarey/instab.html --#
#-----------------------------------------------------------------------------#

Author/Artist: alkaline trio
Title: war brain
Album: rock against bush vol. 1
Transcribed by: weeman
Email: alkalinetrio6204@aol.com

----------------------------------|----------------|--------------------------
-7---7---7---7---7---7---7---7----|----------------|--------------------------
---4---4--------------------------|-------44-------|--------------------------
-----------6---6---4---4---4---4--|-66-22-44-44444-|--------------------------
----------------------------------|-66-22-22-44444-|--------------------------
----------------------------------|-44-00----22222-|--------------------------
intro & riff (played with verse) verse x4

-------------------------|------------------------|---------------------------
-------------------------|------------------------|---------------------------
-------------------------|------------------------|---------------------------
--2222222222-66666-44444-|-2222222222-44444-22222-|--2~-----------------------
--2222222222-66666-44444-|-2222222222-44444-22222-|--2~-----------------------
--0000000000-44444-22222-|-0000000000-22222-00000-|--0~-----------------------
chorus x3 then> end of each chorus end on

order:

feedback then pick scrape
intro x2
verse x4
chorus x3
riff x2
verse x4
chorus x3
riff x2
end
----------------------------------------------------------------------------
WARBRAIN - Alkaline Trio
----------------------------------------------------------------------------
Tabbed by: Jesse Benedick
Email: JBMETAL311@YAHOO.COM
Rock Against Bush Comp.

Tuning: Standard

e|-----|----------------------|-------------------------------------|
B|--9--|----------------------|--7---7---7---7---7---7---7---7------|
G|--x--|------------4---------|----4---4----------------------------|
D|--6--|--6----2----4----4----|------------6---6---4---4---4---4----|
A|-----|--6----2----2----4----|-------------------------------------|
E|-----|--4----0---------2----|-------------------------------------|
Main Chords Main Riff
e|-----------------------------------------------------------------------|
B|-----------------------------------------------------------------------|
G|-----------------------------------------------------------------------|
D|--2------6--4------2------6--4------2------6--4-------2------4----2----|
A|--2------6--4------2------6--4------2------6--4-------2------4----2----|
E|--0------4--2------0------4--2------0------4--2-------0------2----0----|
Chorus Chords

| / slide up
| slide down
| h hammer-on
| p pull-off
| ~ vibrato
| + harmonic
| x Mute note
============================================================================