Alkaline Trio — Weve Had Enough

На этой странице Вы можете ознакомиться с 6 версиями подбора аккордов для гитары к песне "Weve Had Enough" группы (исполнителя) "Alkaline Trio".

Pretty sure its 90%-100% correct

Intro
G-----------------------------------------------------------I
D-----------------------------------------------------------I
A-----------44444---------22222---------11111---------------I
E-4-2-4-2-4------4-2-4-2-4-----4-2-4-2-2-----4-6-7-6-9-7-6-2I

Verse
G--------------------I G-----------------------------------I
D--------------------I X2 D-----------------------------------I
A--------------------I A-------------------22-222-255-555-5I
E-22-222-222-22-22-00I E-55-555-555-555-22-----------------I

Chorus
G-----------------------------------I
D-----------------------------------I
A---------------------------55555555I
E-5555555555555555-22222222---------I

Bridge
G-----------------------------------I
D-----------------------------------I
A----5~----7~----5~-7777777777777777I
E-5~----5~----5~--------------------I

Guitar solo part is the same as the bridge but you could play the solo on bass too
G-15151515151515151515151515151515-----------------------------------I
D----------------------------------1515151515151515-121212-1313131313I
A--------------------------------------------------------------------I
E--------------------------------------------------------------------I

Outro
G----------------I
D----------------I
A----------------I
E-222222222222-5~I
Intro

G|---------------------------------------------------------------------------|
D|---------------------------------------------------------------------------|
A|----------------7777777---------------5555555----------------4444444-----|
E|-22-00-22-00-22--------22-00-22-00-22---------22-00-22-00-22-------------|

G|---------------------------------------------------------------------------|
D|---------------------------------------------------------------------------|
A|---------------------------------------------------------------------------|
E|-22-44-55-44-77-55-44-00--------------------------------------------------|

Verse

G|---------------------------------------------------------------------------|
D|---------------------------------------------------------------------------|
A|--------------------------------------------------------------7777-5555----| X2
E|-22-222-222-222-00-22-222-222-222-00-55-555-555-555-44-77-777-----------|

Break

G|---------------------------------------------------------------------------|
D|---------------------------------------------------------------------------|
A|-------------4444444-------------------------------------------------------|
E|-22-00-22-00---------22-44-55-44-77-55-44-00------------------------------|

Verse

G|---------------------------------------------------------------------------|
D|---------------------------------------------------------------------------|
A|--------------------------------------------------------------7777-5555----| X2
E|-22-222-222-222-00-22-222-222-222-00-55-555-555-555-44-77-777--------------|

Chorus

G|-----------------------------------|
D|-----------------------------------|
A|---------------------555555--------| X2
E|-55555555555-222222----------------|

Break

G|------------------------------------------------|
D|------------------------------------------------|
A|------------------------------------------------|
E|-22-00-22-00-22-0-22-00--22-00-22-00-22-0-22-00-|

Verse Again

G|---------------------------------------------------------------------------|
D|---------------------------------------------------------------------------|
A|--------------------------------------------------------------7777-5555----| X2
E|-22-222-222-222-00-22-222-222-222-00-55-555-555-555-44-77-777--------------|

Chorus Again

G|-----------------------------------|
D|-----------------------------------|
A|---------------------555555--------| X4
E|-55555555555-222222----------------|

Interlude
#= Play 16X &= Play 6X

G|--------------------------------------------|
D|--------------------------------------------|
A|---5---7---5--7#-------5&----7&----5&----7#-|
E|-5---5---5----------5&----5&----5&----------|

Outro
#= Play 16X *= Play 8X != Play 4X += Play 2X

G|---------------------------------------------------------------------------|
D|---------------------------------------------------------------------------|
A|-0#-7*-5!-4!-0#-7*-5!-4!---------------------------------------------------|
E|-------------------------2+-4+-5+-7+-0+-5+-4+-0+-2/5----------------------|
we've had enough - alkaline trio

Tabbed by:jake harding
Email: iwasjustcleaninganditwentoff@hotmail.com

Tuning: normal
intro
e|---------------------------------------------------------------------------
B|---------------------------------------------------------------------------
G|----------------999999----------------777777----------------666666---------
D|-44-22-44-22-44-999999-44-22-44-22-44-777777-44-22-44-22-44-666666---------
A|-44-22-44-22-44-777777-44-22-44-22-44-555555-44-22-44-22-44-444444---------
E|-22-00-22-00-22--------22-00-22-00-22--------22-00-22-00-22----------------

e|---------------------------------------------------------------------------
B|---------------------------------------------------------------------------
G|---------------------------------------------------------------------------
D|-44-66-77-66-99-77-66-22---------------------------------------------------
A|-44-66-77-66-99-77-66-22---------------------------------------------------
E|-22-44-55-44-77-55-44-00---------------------------------------------------
verse
e|-------------------------------------------------------------------------
B|-------------------------------------------------------------------------
G|-44-444-444-444-22-44-444-444-444-22-77-777-777-777-22-44-4444-999-888---x2
D|-44-444-444-444-22-44-444-444-444-22-77-777-777-777-22-44-4444-999-888---
A|-22-222-222-222-00-22-222-222-222-00-55-555-555-555-00-22-2222-777-666---
E|-------------------------------------------------------------------------
verse divider
e|---------------------------------------------------------------------------
B|----------------666666-----------------------------------------------------
G|----------------666666-----------------------------------------------------
D|-44-22-44-22-44-444444-44-66-77-66-99-77-66-22-----------------------------
A|-44-22-44-22-44--------44-66-77-66-99-77-66-22-----------------------------
E|-22-00-22-00-22--------22-44-55-44-77-55-44-00-----------------------------


e|------------------------------------------------------------------------
B|------------------------------------------------------------------------
G|-44-444-444-444-22-44-444-444-444-22-77-777-777-777-22-44-4444-999-888-- x2
D|-44-444-444-444-22-44-444-444-444-22-77-777-777-777-22-44-4444-999-888--
A|-22-222-222-222-00-22-222-222-222-00-55-555-555-555-00-22-2222-777-666--
E|------------------------------------------------------------------------

chorus
e|------------------------------------------------------------------------
B|------------------------------------------------------------------------
G|---------------------------77777777------------------------------------- x2
D|-7777777777777777-44444444-77777777-------------------------------------
A|-7777777777777777-44444444-55555555-------------------------------------
E|-5555555555555555-22222222----------------------------------------------
mini solo
e|---------------------------------------------------------------------------
B|---------------------------------------------------------------------------
G|---------------------------------------------------------------------------
D|---------------------------------------------------------------------------
A|-99-77-99-77-99-7-9b-777-99-77-99-77-99-7-9b-777-9-------------------------
E|---------------------------------------------------------------------------

e|------------------------------------------------------------------------
B|------------------------------------------------------------------------
G|-44-444-444-444-22-44-444-444-444-22-77-777-777-777-22-44-4444-999-888-- x2
D|-44-444-444-444-22-44-444-444-444-22-77-777-777-777-22-44-4444-999-888--
A|-22-222-222-222-00-22-222-222-222-00-55-555-555-555-00-22-2222-777-666--
E|------------------------------------------------------------------------
pm----------------------------------------------------------------------
bridge
e|--------------------------------------------------------------------------
B|--------------------------------------------------------------------------
G|---7---9---7-99999999-----------------------------------------------------
D|-7-7-7-9-7-7-99999999-----------------------------------------------------
A|-7-5-7-7-7-5-77777777-----------------------------------------------------
E|-5---5---5----------------------------------------------------------------
main solo
e|---------------------------------------------------------------------------
B|---------------------------------------------------------------------------
G|-14-9-6-7------------------------------------------------------------------
D|-14-9-6-7------------------------------------------------------------------
A|-12-7-4-5------------------------------------------------------------------
E|-12-7-4-5------------------------------------------------------------------
(sorry i didnt have time to write out fully, note 1 16 times.
note 2 8 times.note 3 3 times. note 4 5 times)
(use fingers 1st and 4th like barre chord to play,
its easier)

e|---------------------------------------------------------------------------
B|---------------------------------------------------------------------------
G|---------------------------------------------------------------------------
D|-44-66-77-66-99-77-66-22-4-------------------------------------------------
A|-44-66-77-66-99-77-66-22-4-------------------------------------------------
E|-22-44-55-44-77-55-44-00-2-------------------------------------------------

| / slide up
| slide down
| h hammer-on
| p pull-off
| ~ vibrato
| + harmonic
| x Mute note
this is my first song from alkaline trio so i hope you like it.

any shit destinypunk@hotmail.com

INTRO

1--------------------------------------------------------------------
2--------------------------------------------------------------------
3--------------------------------------------------------------------
4-----------------------2-2-2-2-2-2---------------------------------- 1 part
5--------------------------------------------------------4-4-4-4-4-4-
6--2-2-0-0-2-2-0-0-2-2--------------2-2-0-0-2-2-0-0-2-2--------------

1-------------------------------------------------------------------
2-------------------------------------------------------------------
3-------------------------------------------------------------------
4------------------------------------------------------------------- 2 part
5-----------------------2-2-2-2-2-2------------------2-2------------
6--2-2-0-0-2-2-0-0-2-2---------------2-2-4-4-5-5-4-4-----5-5-4-0----

VERSE

1---------------------------------------------------------------------
2---------------------------------------------------------------------
3---------------------------------------------------------------------
4--4-4-x-4-4-4-x-x--------4-4-x-4-4-4-x-x--------7-7-x-7-7-7-x-x------
5--4-4-x-4-4-4-x-x-0-0-0--4-4-x-4-4-4-x-x-0-0-0--7-7-x-7-7-7-x-x-0-0-0
6--2-2-x-2-2-2-x-x-0-0-0--2-2-x-2-2-2-x-x-0-0-0--5-5-x-5-5-5-x-x-0-0-0

1---------------------------------------------------------------------
2---------------------------------------------------------------------
3--4-4-x-4-4-4-x-x--7-7-7-7--6-6-6-6----------------------------------
4--4-4-x-4-4-4-x-x--x-x-x-x--x-x-x-x----------------------------------
5--2-2-x-2-2-2-x-x--5-5-5-5--4-4-4-4----------------------------------
6---------------------------------------------------------------------

the all verse x2, and then repeat the 2 part from the intro, then the verse,then the chorus:

CHORUS

1---------------------------------------------
2---------------------------------------------
3----------------------------7-7-7-7-7-7-7-7--
4--7-7-7-7-7-7-7-7--4-4-4-4--7-7-7-7-7-7-7-7-- X2
5--7-7-7-7-7-7-7-7--4-4-4-4--5-5-5-5-5-5-5-5--
6--5-5-5-5-5-5-5-5--2-2-2-2-------------------

this is not from the chorus

1-----------------------------------
2-----------------------------------
3-----------------------------------
4--4-4-2-2-4-4-2-2-4-4-2-(4)-2-2-4--
5-----------------------------------
6-----------------------------------

then its a kind of efect in the verse but its the same note,and then do the chorus x2 and then:

BRIDGE

1---------------------------------------
2---------------------------------------
3-----7-----9-------7--9-9-9-9-9-9-9-9--
4--7--7--7--9----7--7--9-9-9-9-9-9-9-9-- x2
5--7--5--7--7----7--5--7-7-7-7-7-7-7-7--
6--5-----5-------5----------------------

then do this for four times:

1------------------------------------------------------
2------------------------------------------------------
3--14-14-14-14-14-14-14-14--9-9-9-9-9-9--6-6-6--7-7-7--
4--x--x--x--x--x--x--x--x---x-x-x-x-x-x--x-x-x--x-x-x-- x4
5--12-12-12-12-12-12-12-12--7-7-7-7-7-7--4-4-4--5-5-5--
6------------------------------------------------------

the end its like this:

1---------------------------------
2---------------------------------
3---------------------------------
4---------------------------------
5------------------2-2----------4-
6--2-2-4-4-5-5-4-4-----5-5-4-0--2-
(intro)
x1
e--------------------------------------------------------------------------
b--------------------------------------------------------------------------
g--------------------------------------------------------------------------
d--------------------------------------------------------------------------
a--------------7-----------------4----------------2------------------------
e--22-00-22-00----22--00--22--00---22--00--22--00---22-44-55-44-77-55-44-00


(VERSE)x2 then you play intro variation then you play verse 2 more times

e-----------------------------------------------------------------------
b-----------------------------------------------------------------------
g-------------------------------------------------------------------12-11
d--------------------------------------------------------------------x-x
a--44--444-444-44-222--44--444-444-44-222-44-444-444-44-22-55 555-5-10-9
e--22--222-222-22-000--22--222-222-22-000-55-555-555-55-00-77-777-7-----

(intro variation)x1

e-----------------------------------------------------------------------
b-----------------------------------------------------------------------
g-----------------------------------------------------------------------
d-----------------------------------------------------------------------
a------------------2----------------------------------------------------
e--22--00--22--00----22--44--55--44--77--55--44--00---------------------

(chorus)x4

e----------------------------------
b----------------------------------
g----------------------------------
d---------------------7777---------
a-----77777777--4444--5555---------
e-----55555555--2222---------------

(bridge/solo)x2

e-----------------------------------------------------------
b-----------------------------------------------------------
g-----------------------------------------------------------
d-----------------------------------------------------------
a--44--22--44--22--44-2-4^54-2--44--33--44--33--44-3--4^54-2
e--22--00--22--00--22-0-2^32-0--22--00--22--00--22-0--2^32-0

(verse 3)x2

e--------------------------------------------------
b--------------------------------------------------
g--------------------------------------------------
d------------------------------12-12-12-12-11-11-11
a--7------------------99999999-xx-xx-xx-xx-x-x-x---
e--5------------------77777777-10-10-10-10-9-9-9---

(final chorus)x2
a--------------------------------------------------
g--------------------------------------------------
d------7---------7---------------------------------
a--7---5----7----5----7---------777777777777777777-
e--5--------5---------5----------------------------

e---------------------------------------------------------------------
b---------------------------------------------------------------------
g--14-14-14-14-14-14-14-14-14-14-14-14-14-14-14-14--99999999-66667777-
d--xx-xx-xx-xx-xx-xx-xx-xx-xx-xx-xx-xx-xx-xx-xx-xx--xxxxxxxx-xxxxxxxx- x4
a--12-12-12-12-12-12-12-12-12-12-12-12-12-12-12-12--77777777-44445555-
e---------------------------------------------------------------------

e---------------------------------
a---------------------------------
g---------------------------------
d---------------------------------
a------------------------------4--
e--22-44-55-44-77-55-44-00-----2--

order:
intro
verse 1
intro variation
verse 2
chorus
bridge/solo
verse 3
chorus
final chorus
-------------------------------------------------------------------------------
We’ve Had Enough – Alkaline Trio
-------------------------------------------------------------------------------

Right I’m slowing working my way through this album but done a few tonight
so I’ll try to get them up asap, but this is there new single I believe a
great track of the album there all amazing and so are the trio, so please
enjoy and rate it it really accurate, I’ve included everything but the
timings not shown but not hard once ya get the hang of playing it!!!

Intro
e|----------------------------------------------------------------|
B|----------------------------------------------------------------|
G|--------------99999--------------66666--------------44444-------|
D|--------------xxxxx--------------xxxxx--------------xxxxx-------|
A|-442244224422-77777-442244224422-44444-442244224422-22222-------|
E|-220022002200-------220022002200-------220022002200-------------|

Intro cont……
e|------------------------|
B|------------------------|
G|------------------------|
D|------------------------|
A|-4466776699776622-------|
E|-2244554477554400-------|

Verse
e|--------------------------------------------------|
B|--------------------------------------------------|
G|--------------------------------------------------|
D|-44-44-44-44-22--44-44-44-44-22--77-77-77-77-22---|
A|-44-44-44-44-22--44-44-44-44-22--77-77-77-77-22---|
E|-22-22-22-22-00--22-22-22-22-00--55-55-55-55-00---|

Verse cont……
e|-----------------------------|
B|-----------------------------|
G|-44-44-44-44--7777-6666------|
D|-44-44-44-44--xxxx-xxxx------|
A|-22-22-22-22--5555-4444------|
E|-----------------------------|

Chorus
e|----------------------------------|
B|----------------------------------|
G|--------------------7777777-------|
D|-7777777777-4444444-7777777-------|
A|-7777777777-4444444-5555555-------|
E|-5555555555-2222222---------------|

Bridge 1
e|--------------------------------------|
B|--------------------------------------|
G|--------------------------------------|
D|-442244224422-4(bend upwards)-4-2-----|
A|--------------------------------------|
E|--------------------------------------|

Bridge 2
e|-----------------------------------------|
B|-----------------------------------------|
G|-----7-------9-------7---9999999999------|
D|-7---7---7---9---7---7---9999999999------|
A|-7---5---7---7---7---5---7777777777------|
E|-5-------5-------5-----------------------|

Bridge 3
e|--------------------------------------------------|
B|--------------------------------------------------|
G|-141414141414141414141414--9999999-6666-7777------|
D|-xxxxxxxxxxxxxxxxxxxxxxxx--xxxxxxx-xxxx-xxxx------|
A|-121212121212121212121212--7777777-4444-5555------|
E|--------------------------------------------------|

Intro
Verse x2
Intro (but only play the second half)
Verse x2
Chorus x2
Intro (but play bridge one over it)
Bass verse
Chorus x4
Bridge 2 x2
Bridge 3 x4
Last part of intro to finish

Right that’s it, I think I’ve done a pretty good job with this one
so enjoy it, Matt Skiba is a legend!!

E-Mail – funkeymonkey10@hotmail.com
===============================================================================