All-american Rejects — Drive Away

-------------------------------------------------------------------------------
DRIVE AWAY - The All-American Rejects
-------------------------------------------------------------------------------
Tabbed by: Anthony
Email: anthinator@hotmail.com

Tuning: Standard


INTRO:
e|---------------------------------------------------------------------------|
B|-0~------------------------------------------------------------------------|
G|-0~---------99xxx-77xxx-77xxx-------9xxx-7xxxx-777-------------------------|
D|-0~---77xxx-99xxx-77xxx-77xxx-77xxx-9xxx-7xxxx-777-------------------------|
A|-0~---77xxx-77xxx-55xxx-55xxx-77xxx-7xxx-5xxxx-555-------------------------|
E|-5~---55xxx-------------------55xxx----------------------------------------|

VERSE:
e|---------------------------------------------------------------------------|
B|---------------------------------------------------------------------------|
G|-----99x-77x-77-77777777/99-99---------------------------------------------|
D|-77x-99x-77x-77-77777777/99-99---------------------------------------------|
A|-77x-77x-55x-55-55555555/77-77---------------------------------------------|
E|-55x-----------------------------------------------------------------------|
P.M. '

e|---------------------------------------------------------------------------|
B|---------------------------------------------------------------------------|
G|-----99x-77x-77-77777777/99-99xxxx-----------------------------------------|
D|-77x-99x-77x-77-77777777/99-99xxxx-----------------------------------------|
A|-77x-77x-55x-55-55555555/77-77xxxx-----------------------------------------|
E|-55x-----------------------------------------------------------------------|
P.M. '

CHORUS:
e|---------------------------------------------------------------------------|
B|---------------------------------------------------------------------------|
G|---------7777777-9999999-7777777---------7777777-9999999-7x7---------------|
D|-7777777-7777777-9999999-7777777-7777777-7777777-9999999-7x7---------------|
A|-7777777-5555555-7777777-5555555-7777777-5555555-7777777-5x5---------------|
E|-5555555-------------------------5555555-----------------------------------|

e|---------------------------------------------------------------------------|
B|---------------------------------------------------------------------------|
G|---------7777777-999999999999-7~-xx9~--------------------------------------|
D|-7777777-7777777-999999999999-7~-xx9~-77xxxx77xxxx-44xxxx444---------------|
A|-7777777-5555555-777777777777-5~-xx7~-77xxxx77xxxx-44xxxx444---------------|
E|-5555555------------------------------55xxxx55xxxx-22xxxx222---------------|

e|---------------------------------------------------------------------------|
B|---------------------------------------------------------------------------|
G|-777777777777-9999999------------------------------------------------------|
D|-777777777777-9999999------------------------------------------------------|
A|-555555555555-7777777------------------------------------------------------|
E|---------------------------------------------------------------------------|

INTRO:
e|---------------------------------------------------------------------------|
B|---------------------------------------------------------------------------|
G|-------99xxx-77xxx-77xxx-------9xxx-7xxxx-777------------------------------|
D|-77xxx-99xxx-77xxx-77xxx-77xxx-9xxx-7xxxx-777------------------------------|
A|-77xxx-77xxx-55xxx-55xxx-77xxx-7xxx-5xxxx-555------------------------------|
E|-55xxx-------------------55xxx---------------------------------------------|

VERSE:
e|---------------------------------------------------------------------------|
B|---------------------------------------------------------------------------|
G|-----99x-77x-77-77777777/99-99---------------------------------------------|
D|-77x-99x-77x-77-77777777/99-99---------------------------------------------|
A|-77x-77x-55x-55-55555555/77-77---------------------------------------------|
E|-55x-----------------------------------------------------------------------|
P.M. '

e|---------------------------------------------------------------------------|
B|---------------------------------------------------------------------------|
G|-----99x-77x-77-77777777/99-99xxxx-----------------------------------------|
D|-77x-99x-77x-77-77777777/99-99xxxx-----------------------------------------|
A|-77x-77x-55x-55-55555555/77-77xxxx-----------------------------------------|
E|-55x-----------------------------------------------------------------------|
P.M. '

CHORUS:
e|---------------------------------------------------------------------------|
B|---------------------------------------------------------------------------|
G|---------7777777-9999999-7777777---------7777777-9999999-7x7---------------|
D|-7777777-7777777-9999999-7777777-7777777-7777777-9999999-7x7---------------|
A|-7777777-5555555-7777777-5555555-7777777-5555555-7777777-5x5---------------|
E|-5555555-------------------------5555555-----------------------------------|

e|---------------------------------------------------------------------------|
B|---------------------------------------------------------------------------|
G|---------7777777-999999999999-7~-xx9~--------------------------------------|
D|-7777777-7777777-999999999999-7~-xx9~-77xxxx77xxxx-44xxxx444---------------|
A|-7777777-5555555-777777777777-5~-xx7~-77xxxx77xxxx-44xxxx444---------------|
E|-5555555------------------------------55xxxx55xxxx-22xxxx222---------------|

e|---------------------------------------------------------------------------|
B|---------------------------------------------------------------------------|
G|-777777777777-999999999999-------------------------------------------------|
D|-777777777777-999999999999-------------------------------------------------|
A|-555555555555-777777777777-------------------------------------------------|
E|---------------------------------------------------------------------------|

BRIDGE:
e|---------------------------------------------------------------------------|
B|---------------------------------------------------------------------------|
G|------9999-7777775/9------9999-777777xxxx------9999-77777777-77777777-99-99|
D|-4444-9999-7777775/9-4444-9999-777777xxxx-4444-9999-77777777-77777777-99-99|
A|-4444-7777-5555555/7-4444-7777-555555xxxx-4444-7777-55555555-55555555-77-77|
E|-2222----------------2222-----------------2222-----------------------------|
P.M. '

CHORUS: clean distortion
e|---------------------------------------------------------------------------|
B|---------------------------------------------------------------------------|
G|---------7777777-9999999-7777777---------7777777-9999999-7x7---------------|
D|-7777777-7777777-9999999-7777777-7777777-7777777-9999999-7x7---------------|
A|-7777777-5555555-7777777-5555555-7777777-5555555-7777777-5x5---------------|
E|-5555555-------------------------5555555-----------------------------------|

e|---------------------------------------------------------------------------|
B|---------------------------------------------------------------------------|
G|---------7777777-999999999999-7~-xx9~--------------------------------------|
D|-7777777-7777777-999999999999-7~-xx9~-77xxxx77xxxx-44xxxx444---------------|
A|-7777777-5555555-777777777777-5~-xx7~-77xxxx77xxxx-44xxxx444---------------|
E|-5555555------------------------------55xxxx55xxxx-22xxxx222---------------|

e|---------------------------------------------------------------------------|
B|---------------------------------------------------------------------------|
G|-777777777777-999999999999xxxxxxxx-----------------------------------------|
D|-777777777777-999999999999xxxxxxxx-----------------------------------------|
A|-555555555555-777777777777xxxxxxxx-----------------------------------------|
E|---------------------------------------------------------------------------|

e|---------------------------------------------------------------------------|
B|---------------------------------------------------------------------------|
G|-----------------7777777-9999999-----------------7777777-9999999-----------|
D|-7777777-4444444-7777777-9999999-7777777-4444444-7777777-9999999-----------|
A|-7777777-4444444-5555555-7777777-7777777-4444444-5555555-7777777-----------|
E|-5555555-2222222-----------------5555555-2222222---------------------------|

e|---------------------------------------------------------------------------|
B|---------------------------------------------------------------------------|
G|-----------------7777777-9999999---------------xx77777-9999999-------------|
D|-7777777-4444444-7777777-9999999-xx7xx7-xx4xx4-xx77777-9999999-------------|
A|-7777777-4444444-5555555-7777777-xx7xx7-xx4xx4-xx55555-7777777-------------|
E|-5555555-2222222-----------------xx5xx5-xx2xx2-----------------------------|

e|--------------|
B|--------------|
G|--------------|
D|-777----------|
A|-777----------|
E|-555----------| END ON



| / slide up
| slide down
| h hammer-on
| p pull-off
| ~ vibrato
| + harmonic
| x Mute note

===============================================================================