All-american Rejects — Girl Of My Dreams

----------------------------------------------------------

Artist : The All-American Rejects
Song : Girl Of My Dreams
Tabbed by: Victoria the guitarist =P

To: My lovely gal Lorina!

----------------------------------------------------------

/ : slide
(L R) : let ring

----------------------------------------------------------

Intro:

e |--------------------------- |---|
B |--------------------------- |---|
G |--------------7------------ x2 |-7-| x7
D |-7------------7-(let ring)- |-7-|
A |-7-(let ring)-5------------ |-5-|
E |-5------------------------- |---|

e |------------- |---|
B |------------- |---|
G |-------7----- X2 |---|
D |-7-----7-X16- |-7-|
A |-7-X16-5----- |-7-|(let ring)
E |-5----------- |-5-|

Verse:

e |---------------------|
B |---------------------|
G |------9999-6666-7777-| X4
D |-7777-9999-6666-7777-|
A |-7777-7777-4444-5555-|
E |-5555----------------|

e |-------------|
B |-------------|
G |-------7-----| X2
D |-7-----7-X16-|
A |-7-X16-5-----|
E |-5-----------|

e |---------------------|
B |---------------------|
G |------9999-6666-7777-| X4
D |-7777-9999-6666-7777-|
A |-7777-7777-4444-5555-|
E |-5555----------------|

Bridge:

e |----------------------------------------------|
B |----------------------------------------------|
G |--------------7--------------------------7/9--|
D |-4------------7-(let ring)--4------------7/9--|
A |-4-(let ring)-5-------------4-(let ring)-5/7--|
E |-2--------------------------2-----------------|

Chours:

e |---------------------------------------------|
B |---------------------------------------------|
G |------9999------7777-------9999--------7/9---|
D |-7777-9999-9999-7777--7777-9999-9------7/9-7-|
A |-7777-7777-9999-5555--7777-7777-9(L-R)-5/7-7-|(let ring)
E |-5555------7777-------5555------7----------5-|

Verse:

e |-------|
B |-------|
G |-------|
D |-7777--| X8
A |-------|
E |-------|

Bridge:

e |----------------------------------------------|
B |----------------------------------------------|
G |--------------7--------------------------7/9--|
D |-4------------7-(let ring)--4------------7/9--|
A |-4-(let ring)-5-------------4-(let ring)-5/7--|
E |-2--------------------------2-----------------|

Chours:

e |-----------------------------------------------|
B |-----------------------------------------------|
G |------9999------7777-------9999--------7/9-----|
D |-7777-9999-9999-7777--7777-9999-9------7/9--7--|
A |-7777-7777-9999-5555--7777-7777-9(L-R)-5/7--7--| (L-R)
E |-5555------7777-------5555------7-----------5--|

(Pause)

e |------------------------------------------|
B |------------------------------------------|
G |------9999------7777-------9999------7777-|
D |-7777-9999-9999-7777--7777-9999-9999-7777-|
A |-7777-7777-9999-5555--7777-7777-9999-5555-|
E |-5555------7777-------5555------7777------|

e |-----------------------------------------------|
B |-----------------------------------------------|
G |------9999------7777-------9999--------7/9-----|
D |-7777-9999-9999-7777--7777-9999-9------7/9--7--|
A |-7777-7777-9999-5555--7777-7777-9(L-R)-5/7--7--| (L-R)
E |-5555------7777-------5555------7-----------5--|

e |------------------------------------------|
B |------------------------------------------|
G |------9999------7777-------9999------7777-|
D |-7777-9999-9999-7777--7777-9999-9999-7777-|
A |-7777-7777-9999-5555--7777-7777-9999-5555-|
E |-5555------7777-------5555------7777------|

e |------------------------------------------|
B |------------------------------------------|
G |------9999------7777-------9999------7777-| (fade out)
D |-7777-9999-9999-7777--7777-9999-9999-7777-|
A |-7777-7777-9999-5555--7777-7777-9999-5555-|
E |-5555------7777-------5555------7777------|