All-american Rejects — One More Sad Song

На этой странице Вы можете ознакомиться с 3 версиями подбора аккордов для гитары к песне "One More Sad Song" группы (исполнителя) "All-american Rejects".

-------------------------------------------------------------------------------
One More Sad Song - All-American Rejects
-------------------------------------------------------------------------------

Tabbed by: MIKE
Email: Aol Sn(s) Guitarguy277 XxMike7StRaTxX XxAfFiNiTy03xX XXfendermikeXX

LOL

Tuning: Standard

Intro: Guitar 1 Do twice.
e|-5-5-5-5-7-7-7-7-9-9-9-9-11-11-11-11-4-4-4-4-7-7-7-7-9-9-9-9-11-11-11-11---|
B|---------------------------------------------------------------------------|
G|---------------------------------------------------------------------------|
D|---------------------------------------------------------------------------|
A|---------------------------------------------------------------------------|
E|---------------------------------------------------------------------------|

e|-------9-9-11-11-0-0-0-9-9-11-11-5-5-5-5-7-7-7-7-9-9-9-9-11-11-11-11-------|
B|-7-7-7---------------------------------------------------------------------|
G|---------------------------------------------------------------------------|
D|---------------------------------------------------------------------------|
A|---------------------------------------------------------------------------|
E|---------------------------------------------------------------------------|
Intro: Guitar 2
e|---------------------------------------------------------------------------|
B|---------------------------------------------------------------------------|
G|----------------66666666666666-7777777-9999999-----------------------------|
D|-77777777777777-66666666666666-7777777-9999999--77777777777777-------------|
A|-77777777777777-44444444444444-5555555-7777777--77777777777777-------------|
E|-55555555555555---------------------------------55555555555555-------------|
Verse: Do twice
e|---------------------------------------------------------------------------|
B|---------------------------------------------------------------------------|
G|----------------66666666666666-7777777-9999999-----------------------------|
D|-77777777777777-66666666666666-7777777-9999999--77777777777777-------------|
A|-77777777777777-44444444444444-5555555-7777777--77777777777777-------------|
E|-55555555555555---------------------------------55555555555555-------------|
PM...........................................................................
Chorus:
e|---------------------------------------------------------------------------|
B|---------------------------------------------------------------------------|
G|------------------6666666-7777777------------------------------------------|
D|-77777777777777---6666666-7777777------------------------------------------|
A|-77777777777777---4444444-5555555------------------------------------------|
E|-55555555555555------------------------------------------------------------|
Solo: Do twice (once dring the break thing)
e|---------------------------------------------------------------------------|
B|-9-10-9----9-9-10-9------7-7-----------------------------------------------|
G|--------6-----------6--6-----9-7-6-4-7-6-----------------------------------|
D|---------------------------------------------------------------------------|
A|---------------------------------------------------------------------------|
E|---------------------------------------------------------------------------|

| / slide up
| slide down
| h hammer-on
| p pull-off
| ~ vibrato
| + harmonic
| x Mute note
| pm... palm mute

===============================================================================
artist: the all-american rejects
song: one more sad song
album: selftitled
tuning: standard (e,A,D,G,B,E)


guitar 1
e-6666-8888-10101010-11111111-5555-8888-10101010-11111111---10-11----10-11-|
B--------------------------------------------------------888-----666-------|
G--------------------------------------------------------------------------|
D--------------------------------------------------------------------------|
A--------------------------------------------------------------------------|
E--------------------------------------------------------------------------|

e-6666-8888-10101010-1111------------------------------------------------|
B------------------------------------------------------------------------|
G------------------------------------------------------------------------|
D------------------------------------------------------------------------|
A------------------------------------------------------------------------|
E------------------------------------------------------------------------|
repeat that 2x

guitar 2
e--------------------------------------------------------------------------| 2x
B--------------------------------------------------------------------------|
G----------xx-6(16x)-xx-7(5x)-xx-9(5x)-------------------------------------|
Dxx-7(16x)-xx-6------xx-7------xx-9------xx-7(16x)-------------------------|
Axx-7------xx-4------xx-5------xx-7------xx-7------------------------------|
Exx-5------------------------------------xx-5------------------------------|

I'm pretty sure this is right
if you have any problems make another
e|5-5-5-5-7-7-7-7-9-9-9-9-10-10-10-10||4-4-4-4-7-7-7-7-9-9-9-9-10-10-10-10|
B|-----------------------------------||-----------------------------------|
G|-----------------------------------||-----------------------------------|
D|-----------------------------------||-----------------------------------|
A|-----------------------------------||-----------------------------------|
E|-----------------------------------||-----------------------------------|

|2-2-2-9/10-10-10||0-0-0-9/10-10-10||5-5-5-5-7-7-7-7-9-9-9-9-10-10-10-10|
|----------------||----------------||-----------------------------------|
|----------------||----------------||-----------------------------------| x2
|----------------||----------------||-----------------------------------|
|----------------||----------------||-----------------------------------|
|----------------||----------------||-----------------------------------|


(the sedcond time u play this when u finish play the tenth fret on B string
once and let it ring)