All-american Rejects — Swing Swing

На этой странице Вы можете ознакомиться с 11 версиями подбора аккордов для гитары к песне "Swing Swing" группы (исполнителя) "All-american Rejects".

Most people dont realize that the bass goes up and not down during the verses and chorus.

Verse: come in with the drums after the guitar.
G----------------------------------------
D----------------------------------------
A-------------55555555----------33333333-
E-12/33333333----------00000000----------

G----------------------------------------
D----------------------------------------
A----------55555555----------33333333----
E-33333333----------00000000-------------

Pre-chorus:
G----------------------------
D----------------------------
A----------33333333-55555555-
E-33333333-------------------

Chorus:
G----------------------------------------
D----------------------------------------
A----------55555555----------33333333----
E-33333333----------00000000-------------

Bridge:
G------------------------------------------
D------------------------------------------
A----55--------------55--33333333-55555555-
E-33------Wait----33-----------------------

Ending for radio version: (the CD version you just fade out)
G-----------------------------------------
D-----------------------------------------
A----------55555555----------33333333-232-
E-33333333----------00000000--------------

Tabbed by Luke
The All-American Rejects -  Swing, Swing

My first tab, perfectly flawless. Wrote it ‘cause I was bored. Here ya go,
and I hope ya like it! Any complaints, feel free to e-mail me at
Nightmare376@yahoo.com

Tabbed by: Nightmare376

Normal tuning
~ = Let note ring

Start faintly with guitar

| G-|--------------------------------------------------
| D-|--------------------------------------------------
| A-|--------------------------------------------------
| E-|----4-4---4----3-3---3----2-2---2----5-5---5------ (X2)

All bass

| G-|------------------------------------------------------
| D-|------------------------------------------------------
| A-|------------------55555555---44444444---77777770------
| E-|----33333333 ----------------------------------------- (X2)

| G-|------------------------------------------------------
| D-|------------------------------------------------------
| A-|---------------------------------------------33333330-
| E-|----33333333-33333333 ---00000000--------------------- (X4)

| G-|------------------------------------------------------
| D-|------------------------------------------------------
| A-|------------------------------------------------------
| E-|----2~~~ --- 3~~~------------------------------------- (X1)

| G-|------------------------------------------------------
| D-|------------------------------------------------------
| A-|------------------55555555---44444444---77777770------
| E-|----33333333 ----------------------------------------- (X2)

| G-|------------------------------------------------------
| D-|------------------------------------------------------
| A-|---------------------------------------------33333330-
| E-|----33333333-33333333 ---00000000--------------------- (X4)

| G-|--------------------------------------------------
| D-|--------------------------------------------------
| A-|--------------------------------------------------
| E-|----2~~~ --- 3~~~~~~------------------------------

| G-|--------------------------------------------------
| D-|--------------------------------------------------
| A-|------------------55555555---44444444---77777770--
| E-|----33333333 ------------------------------------- (X2)

| G-|--------------------------------------------------
| D-|--------------------------------------------------
| A-|---3----3-----------------------------------------
| E-|----------------3----3---------------------------- (X2)

| G-|--------------------------------------------------
| D-|--------------------------------------------------
| A-|------33333333-33333333---------------------------
| E-|-------------------------------------------------- (X1)

| G-|-----------------------------------------------------------
| D-|-----------------------------------------------------------
| A-|------------------55555555---444444444---77777770----------
| E-|----33333333 --------------------------------------------3- (X4 then fade out)

Thats all there is to it! hope ya like.

Nightmare
-------------------------------------------------------------------------------
Swing,Swing-All-American Rejects
-------------------------------------------------------------------------------
Tabbed By : Double A
e-mail: amafun@yahoo.com

This is my first tab and I am absolutely sure this is how it is played. Have fun!


Tuning: Standard EADG


Intro
G|---------------------------------------------------------------------------|
D|---------------------------------------------------------------------------|
A|------------------55555555----------33333335-------------------------------|x2
E|---12---33333333----------00000000----------------------------------------|


Verse
G|---------------------------------------------------------------------------|
D|---------------------------------------------------------------------------|
A|-----------------------------33333330--------------------------------------|x4
E|---3333333333333333-00000000-----------------------------------------------|


Pre-chorus
G|---------------------------------------------------------------------------|
D|---------------------------------------------------------------------------|
A|---2----3-----333----------------------------------------------------------|x1
E|---------------------------------------------------------------------------|


Chorus
G|---------------------------------------------------------------------------|
D|---------------------------------------------------------------------------|
A|------------55555555----------33333335-------------------------------------|x4
E|---33333333----------00000000----------------------------------------------|


Bridge
G|---------------------------------------------------------------------------|
D|---------------------------------------------------------------------------|
A|---22--33----------22--33----------3333333333333335------------------------|x1
E|---------------------------------------------------------------------------|


Outro
G|---------------------------------------------------------------------------|
D|---------------------------------------------------------------------------|
A|------------55555555----------33333335-------------------------------------|
E|---33333333----------00000000----------------------------------------------|

keep playing till song fades out


| / slide up
| slide down
| h hammer-on
| p pull-off
| ~ vibrato
| + harmonic
| x Mute note
=============================================================================
www.theall-americanrejects.com

The all american rejects

Swing Swing........
their first single.....great song.

Key:
* - repeat x 8
p - palm muted
# - repeat x 2

Intro 1:
G5 G5b E5 G5
e-----------------------------------------------------------------------------
b-----------------------------------------------------------------------------
d-----------------------------------------------------------------------------
g---5-5--5-----5-5--5----2-2--2----5-5--5-------- Repeat x 1 ----------------
a---5-5--5-----5-5--5----2-2--2----5-5--5-------------------------------------
e---3-3--3-----2-2--2----0-0--0----3-3--3-------------------------------------

Intro 2:
G5 G5b E5 C5
e-------------------------------------------------------------------------
b-------------------------------------------------------------------------
d-----------------------------5*------------------------------------------
g-----5*-------5*------2*-----5*---------- Repeat x 1 ----------------
a-----5*-------5*------2*-----3*------------------------------------------
e-----3*-------2*------0*-------------------------------------------------


Verse:

G5p* G5bp*
Days Swiftly come and go...I'm dreaming of her
E5p* C5p*
She's seeing other guys...Emotioms they stir
G5p* G5bp*
The sun is gone...The nights are long
E5p* C5p*
And I am left while the tears fall

Pre Chorus:

G5p* G5bp* E5p* C5p*
Did you think that I would cry.....on the phone
G5p* G5bp* E5p* C5p*
Do you know what it feels like....being alone
B5 C5 (hold)
I'll find someone new........

Chorus:

G5* G5b
Swing Swing Swing from the tangles of.....
E5* C5*
My heart is crushed by a formal love
G5* G5b* E5* C5*
Can............you..........help........me........find......a.......way
C5
To carry on again....

Verse 2:

Wish cast into the sky
I'm moving on
Sweet beginings do arise
She knows i was wrong
The notes are old
They bend they fold
so do i to a new love

Bridge:

G5# G5b#
Bury me!!!!
C5p*
You thought your problems were gone
G5# G5#
Carry me!!
C5*
(away.....away...away....)

Chorus x 2

there we go!!!!
====================
From : SonsBitchBass
Artist : All American Rejects
Bass Performance: Swing, Swing
Comments: : listen to song for timing and rhythm
on chorus, last note is 0 on odd number times, 5 on
even
---
Strings: E ,A ,D ,G
Symbols explanations:
H: hammer on P: pull off
+: slap .: pop
: slide up /: slide down
--x~~x~~x: triplets
====================

Rest through organ riff

| Intro
G ----------------------------------------------------------------|
D ----------------------------------------------------------------|
A ------------------------5-5-5-5-5-5-5-5---------------------3-3-|
E --10/3-3-3-3-3-3-3-3-----------------------0-0-0-0-0-0-0-0------|
>
|
G ---------------|
D ---------------|
A --3-3-3-3-3-0--|
E ---------------|
>

| Chorus
G --------------------------------------------------------------|
D --------------------------------------------------------------|
A ---------------------5-5-5-5-5-5-5-5----------------------3-3-|
E --3-3-3-3-3-3-3-3-----------------------0-0-0-0-0-0-0-0-------|
>
|
G ---------------|
D ---------------|
A --3-3-3-3-3-0--|
E ---------------|
>

| Verse
G --------------------------------------------------------|
D --------------------------------------------------------|
A ---------------------------------------------------3--3-|
E --3-3-3-3-3-3-3-3-3-3-3-3-3-3-3-3-0-0-0-0-0-0-0-0-------|
>
|
G ---------------|
D ---------------|
A --3-3-3-3-3-0--|
E ---------------|
>

| Pre-Chorus
G -----------------------|
D -----------------------|
A --2----3------5--5--7--|
E -----------------------|
>

| Bridge
G -----------------------------------------------------------------|
D -----------------------------------------------------------------|
A ---------5-5-------------5-5-----3-3-3-3-3-3-3-3-3-3-3-3-3-3-3-5-|
E -3-3------------3-3----------------------------------------------|
>

| Outro
G ---------------------------------------------------------------|
D ---------------------------------------------------------------|
A ---------------------5-5-5-5-5-5-5-5-----------------------3-3-|
E --3-3-3-3-3-3-3-3-----------------------0-0-0-0-0-0-0-0--------|
>
|
G ---------------|
D ---------------|
A --3-3-3-0-3-5--| to fade out
E ---------------|

Order:

Intro
Chorus x2
Verse x4
Pre-Chorus x1
Chorus x2
Verse x4
Pre-Chorus x1
Chorus x4 (Guitar Solo)
Bridge x1
Outro

Great band, great song....this is the first tab of this song that I know of, and I am fairly sure that is
correct.
Intro
G|----------------------------------------
D|---------------------------------------- (x2)
A|------------55555555--77777777--33333330
E|1233333333-----------------------------

Verse
G|-----------------------------------
D|----------------------------------- (x4)
A|---------------------------33333330
E|3333333333333333--00000000---------

Pre-Chorus
G|------------------
D|------------------ (x1)
A|------------------
E|---2~~~-3~~~~-----

Chorus
G|------------------------------------
D|------------------------------------ (x2)
A|---------55555555--77777777-33333330
E|33333333----------------------------

Verse (x4)

Pre-Chorus (x1)

Chorus (x4)

Interlude ...away away away..
G|------ G|-----------------
D|------ (x2) D|-----------------
A|--33-- A|-3333333333333330
E|-----33 E|-----------------

Chorus (x4)

Fadeout with the chorus
-------------------------------------------------------------------------------
Swing Swing - All-American Rejects
-------------------------------------------------------------------------------

Artist: All-American Rejects
Albulm: All-American Rejects
Song title: Swing swing
Tabbed by: Zero is great man.
Tuning: Standard: Right : EADGBe

Organ plays: Cm(C D# G) Gm(G A# D) Em(E F# C) Cm(C D# G)
| | | | | | | | | | | | |
| | | | | | | | | | | | |
| | | |D#| | |F#| | | |A#| |
| | | | | | | | | | | | |
| |__| |__| | |__| |__| |__| |
| | | | | | | |(note these are where the keys are located,
| C | | E | | G | | | not how and where they are played)
|___|___|___|___|___|___|____|

Guitar plays:(With heavy distortion)
e|--------------------------------|
B|--------------------------------|
G|-5-5--5------------------5-5--5-|
D|-5-5--5--5-5--5--2-2--2--5-5--5-|
A|-3-5--3--5-5--5--2-2--2--3-3--3-|
E|---------3-3--3--0-0--0---------|


| / slide up
| slide down
| h hammer-on
| p pull-off
| ~ vibrato
| + harmonic
| x Mute note

I'll probably have more of the song as soon as I figure out the rest.
Peace out.
================================================================================
-------------------------------------------------------------------------------
Swing Swing - The All-American Rejects
-------------------------------------------------------------------------------
Tabbed by: Drew
Email: alreadytite@hotmail.com

Author's Note: Hey, this is my first tab. I know for damn sure I did pretty
well, especially for a newbie tabber. This is one of my favorite songs, so I
decided to tab it. Thanks and credits go to WingNutt and Johan. I learned these
songs from their tabs first, but they still had a few errors. I pretty much fixed
the solo and the chords you play at the end of the pre-chorus, and the intro is
right. I also decided to add chords to the bottom so it would be easier for you
guys to learn. If I made a mistake or a typo anywhere, please correct me. Hope
you all enjoy.

Tuning: Standard - EADGBe : Heavey Distortion

Intro - Repeat 2x
e|---------------------------------------------------------------------------|
B|---------------------------------------------------------------------------|
G|----------------------------5-5--5-----------------------------------------|
D|-5-5--5---5-5--5---2-2--2---5-5--5-----------------------------------------|
A|-5-5--5---5-5--5---2-2--2---3-3--3-----------------------------------------|
E|-3-3--3---2-2--2---0-0--0--------------------------------------------------|
G5 G5b E5 C5

Chorus - Repeat 2x - Palm Muted
e|---------------------------------------------------------------------------|
B|---------------------------------------------------------------------------|
G|------------------7-7-7-7-7-7-7-7-------------------5-5-5-5-5-5-5-5--------|
D|-5-5-5-5-5-5-5-5--7-7-7-7-7-7-7-7--2-2-2-2-2-2-2-2--5-5-5-5-5-5-5-5--------|
A|-5-5-5-5-5-5-5-5--5-5-5-5-5-5-5-5--2-2-2-2-2-2-2-2--3-3-3-3-3-3-3-3--------|
E|-3-3-3-3-3-3-3-3-------------------0-0-0-0-0-0-0-0-------------------------|
G5 D5 E5 C5

Verse - Repeat 8x
e|-3-3--3--------------------------------------------------------------------|
B|-3-3--3--------------------------------------------------------------------|
G|---------------------------------------------------------------------------|
D|---------------------------------------------------------------------------|
A|---------------------------------------------------------------------------|
E|---------------------------------------------------------------------------|
g5

Pre-Chorus - Repeat 2x - Palm Muted
e|---------------------------------------------------------------------------|
B|---------------------------------------------------------------------------|
G|----------------------------------------------------5-5-5-5-5-5-5-5--------|
D|-5-5-5-5-5-5-5-5--5-5-5-5-5-5-5-5--2-2-2-2-2-2-2-2--5-5-5-5-5-5-5-5--------|
A|-5-5-5-5-5-5-5-5--5-5-5-5-5-5-5-5--2-2-2-2-2-2-2-2--3-3-3-3-3-3-3-3--------|
E|-3-3-3-3-3-3-3-3--3-3-3-3-3-3-3-3--0-0-0-0-0-0-0-0-------------------------|
G5 G5 E5 C5

End of Pre-Chorus
e|---------------------------------------------------------------------------|
B|---------------------------------------------------------------------------|
G|----4-------5--------------------------------------------------------------|
D|----4-------5--------------------------------------------------------------|
A|----2-------3--------------------------------------------------------------|
E|--Hold----Hold-------------------------------------------------------------|
B5 C5

Solo
e|---------------------------------------------------14----------------------|
B|-815-15-15-15-15-15--13-12-12-12-12-12-12-13----------12-1213------------|
G|-----------------------------------------------12--------------------------|
D|---------------------------------------------------------------------------|
A|---------------------------------------------------------------------------|
E|---------------------------------------------------------------------------|

e|----------------------------------------15---------------------------------|
B|-15-15-15-15-15-15--13-12-13-12-13--------------12-12-12-13-13-13-14-------|
G|------------------------------------12------12-----------------------------|
D|---------------------------------------------------------------------------|
A|---------------------------------------------------------------------------|
E|---------------------------------------------------------------------------|

Bridge
e|---------------------------------------------------------------------------|
B|---------------------------------------------------------------------------|
G|------------4-----5--------------5-5-5-5-5-5-5-5-5-5-5-5-5-5-5-5-----------|
D|-5-5--5-5---4-----5----5-5--5-5--5-5-5-5-5-5-5-5-5-5-5-5-5-5-5-5-----------|
A|-5-5--5-5---2-----3----5-5--5-5--3-3-3-3-3-3-3-3-3-3-3-3-3-3-3-3-----------|
E|-2-2--2-2--Hold--Hold--2-2--2-2---------(Hit 16 times)---------------------|
G5b G5b B5 C5 G5b G5b C5

| slide down

===============================================================================






*g5*
Days swiftly come and go. Please take note that in the
I'm dreaming of her verse, you play the g5 that only
She's seeing other guys involves the first E string and
Emotions they stir the B string.
The sun is gone.
The nights are long
And I am left while the tears fall.


*G5*
Did you think that I would cry,
on the phone?
*E5*
Do you know what it feels like,
*C5*
being alone?

*B5* *C5*
I'll find someone new


*G5* *D5*
Swing, Swing, Swing from the tangles of
*E5* *C5*
My heart is crushed by a former love
*G5* *D5* *E5*
Can you help me find a way
*C5*
To carry on again.


*g5*
Wish cast into the sky
I'm moving on
Sweet beginnings do arise
She knows I was wrong
The notes are old,
They bend, they fold
and so do I to a new love.


*G5*
Did you think that I would cry,
on the phone?
*E5*
Do you know what it feels like,
*C5*
being alone?

*B5* *C5*
I'll find someone new


*G5* *D5*
Swing, Swing, Swing from the tangles of
*E5* *C5*
My heart is crushed by a former love
*G5* *D5* *E5*
Can you help me find a way
*C5*
To carry on again.




*G5-G5* *G5-G5*
Bury me
*B5-Hold* *C5-Hold*
(you thought your problems were gone)
*G5-G5* *G5-G5*
Carry me
*C5-16 times*
(away. away, away...)


*G5* *D5* This part you play six times,
Swing, Swing, Swing from the tangles of gradually fading out. There is
*E5* *C5* also a solo being played in the
My heart is crushed by a former love background, but you need a second
*G5* *D5* *E5* guitarist for that.
Can you help me find a way
*C5*
To carry on again.
Song: Swing Swing
Artist: All-american Rejects
Album: All-american Rejects

This was sort of hard to figure out only because there were lots of gaps
to fill in. It wasn't just a consistant intro, chorus, ending.... Just
play the whole song with HEAVY DISTORTION throughout the song and it
should sound really good. Have Fun!

Intro:
e----------------------------------------------------------------------
b----------------------------------------------------------------------
g----------------------------------------------------------------------
d-6-6--6---6-6--6---6-6--6---6-6--6---6-6--6---6-6--6---6-6--6---6-6--6
a-6-6--6---6-6--6---6-6--6---6-6--6---6-6--6---6-6--6---6-6--6---6-6--6
E-4-4--4---4-4—-4---4-4—-4---4-4—-4---4-4—-4---4-4—-4---4-4—-4---4-4—-4


Chorus:
e----------------------------------------------------------------------
b----------------------------------------------------------------------
g-------------------7-7-7-7-7-7-7-7---------------------5-5-5-5-5-5-5-5
d-5-5-5-5-5-5-5-5---7-7-7-7-7-7-7-7---2-2-2-2-2-2-2-2---5-5-5-5-5-5-5-5
a-5-5-5-5-5-5-5-5---5-5-5-5-5-5-5-5---2-2-2-2-2-2-2-2---3-3-3-3-3-3-3-3
E-3-3-3-3-3-3-3-3---------------------0-0-0-0-0-0-0-0------------------


Verse:
e----------------------------------------------------------------------
b----------------------------------------------------------------------
g----------------------------------------------------------------------
d-----5-5--5-----5-5--5-----5-5--5-----10-10--10-----------------------
a-----5-5--5-----5-5--5-----5-5--5-----10-10--10-----------------------
E-----3-3--3-----2-2--2-----0-0--0-----8--8---8------------------------


Interlude:
e----------------------------------------------------------------------
b----------------------------------------------------------------------
g-------------------------------------------------------5-5-5-5-5-5-5-5
d-5-5-5-5-5-5-5-5---5-5-5-5-5-5-5-5---2-2-2-2-2-2-2-2---5-5-5-5-5-5-5-5
a-5-5-5-5-5-5-5-5---5-5-5-5-5-5-5-5---2-2-2-2-2-2-2-2---3-3-3-3-3-3-3-3
E-3-3-3-3-3-3-3-3---3-3-3-3-3-3-3-3---0-0-0-0-0-0-0-0------------------

e---------------------
b---------------------
g--hold------hold-----
d---10--------10------
a---10--------10------
E---9---------8-------
I'll find someone new


Solo:
e--------------------------------------15------14-12--------------------
b8/15-15-15-15-15-15-13-12--12-12-13--------12------12-12/13------------
g-----------------------------------12----------------------------------
d-----------------------------------------------------------------------
a-----------------------------------------------------------------------
E-----------------------------------------------------------------------

e----------------------------------------15-----------------------------
b-15-15-15-15-15-15--13-12--13-12--13-----------12----------------------
g-------------------------------------12------12---11-12-14-------------
d-----------------------------------------------------------------------
a-----------------------------------------------------------------------
E-----------------------------------------------------------------------

Outro:
e----------------------------------------------------------------------
b----------------------------------------------------------------------
g-9-9--7-7--HOLD------------HOLD----------------------9-9--7-7---------
d-9-9--7-7---9---------------10-----------------------9-9--7-7---------
a-7-7--5-5---9---------------10-----------------------7-7--5-5---------
E------------7---------------8-----------------------------------------
Bury me you thought your problems were gone Carry me

e----------------------------------------------------------------------
b----------------------------------------------------------------------
g----------------------------------------------------------------------
d---10-10-10-10-10-10-10-10-10-10-10-10-10-10-10-10--------------------
a---10-10-10-10-10-10-10-10-10-10-10-10-10-10-10-10--------------------
E---8--8--8--8--8--8--8--8--8--8--8--8--8--8--8--8---------------------
Away Away Away...................


Intro(x1)
Chorus(x2)
Verse(x2)
Interlude(x2)
Chorus(x2)
Verse(x2)
Interlude(x2)
Chorus(x2)
Solo(x1)
Outro(x1)
Chorus(x6): as you fade out

PEACE!
-WING-
Author/Artist: The All-American Rejects 
Title: Swing Swing Transcribed by: Jonathan Meisburg
Email: pbpaintball@yahoo.com
Aim-snake4400
Why has nobody tabbed this..This band rocks.....HIGH voice....Low voice,HIGH voice....Low voice
HIGH voice....Low voice...W00 rock on! I took a break from guitar to do other
stuff but now Im back and tabbin my ass off. =) msg me if u want to chit chat =)
http://www.allamericanrejects.com/index.php is for The bands page if u wanna
check it out..its nice. =)
Standard Tuning: ..(Note ..song comes in on 14-15 seconds)

E :----------------|----------------|----------------|
B :----------------|----------------|----------------|
G :----------7-7---|7-------------5-|5---5-----------|
D :5-5---5---7-7---|7-------------5-|5---5-----------|
A :5-5---5---5-5---|5---2-2---2---3-|3---3-----------| x2
E :3-3---3---------|----0-0---0-----|----------------|
_______________________________________________________________________
E :-----------------------------|---------------------------|
B :-----------------------------|---------------------------|
G :----------------7-7-7-7-7-7-7|7-----------------5-5-5-5-5|
D :5-5-5-5-5-5-5-5-7-7-7-7-7-7-7|7-----------------5-5-5-5-5|
A :5-5-5-5-5-5-5-5-5-5-5-5-5-5-5|5-2-2-2-2-2-2-2-2-3-3-3-3-3|
E :3-3-3-3-3-3-3-3--------------|--0-0-0-0-0-0-0-0----------|

E :------------------|
B :------------------|
G :5-5-5-------------|
D :5-5-5-------------|
A :3-3-3-------------|x2
_______________________________________________________________________
E :3-3---3---------|
B :3-3---3---------|
G :----------------|
D :----------------|
A :2-2---2---------| x8
E :3-3---3---------|
_______________________________________________________________________
E :------------------------|-----------------------|
B :------------------------|-----------------------|
G :------------------------|-----------------------|
D :------------5/75---4-4-|--5--------------5/95-|
A :-----2-3/5--------------|----------2-3/5--------|
E :3/5---------------------|-----3/5---------------|

E :------------------|
B :------------------|
G :------------------|
D :---4-4-4--5-------|
A :------------------|
E :------------------|
_______________________________________________________________________
E :-----------------|
B :-----------------|
G :-----------------|
D :-----------------|
A :2---3-2-0---2-0--|
E :--3-------------3|
_______________________________________________________________________
E :-----------------------------|---------------------------|
B :-----------------------------|---------------------------|
G :----------------7-7-7-7-7-7-7|7-----------------5-5-5-5-5|
D :5-5-5-5-5-5-5-5-7-7-7-7-7-7-7|7-----------------5-5-5-5-5|
A :5-5-5-5-5-5-5-5-5-5-5-5-5-5-5|5-2-2-2-2-2-2-2-2-3-3-3-3-3|x2
E :3-3-3-3-3-3-3-3--------------|--0-0-0-0-0-0-0-0----------|
_______________________________________________________________________
E :3-3---3---------|
B :3-3---3---------|
G :----------------|
D :----------------|
A :2-2---2---------| x8
E :3-3---3---------|
_______________________________________________________________________
E :------------------------|-----------------------|
B :------------------------|-----------------------|
G :------------------------|-----------------------|
D :------------5/75---4-4-|--5--------------5/95-|
A :-----2-3/5--------------|----------2-3/5--------|
E :3/5---------------------|-----3/5---------------|

E :------------------|
B :------------------|
G :------------------|
D :---4-4-4--5-------|
A :------------------|
E :------------------|
_______________________________________________________________________
E :-----------------|
B :-----------------|
G :-----------------|
D :-----------------|
A :2---3-2-0---2-0--|
E :--3-------------3|
_______________________________________________________________________
E :-----------------------------|---------------------------|
B :-----------------------------|---------------------------|
G :----------------7-7-7-7-7-7-7|7-----------------5-5-5-5-5|
D :5-5-5-5-5-5-5-5-7-7-7-7-7-7-7|7-----------------5-5-5-5-5|
A :5-5-5-5-5-5-5-5-5-5-5-5-5-5-5|5-2-2-2-2-2-2-2-2-3-3-3-3-3|x2
E :3-3-3-3-3-3-3-3--------------|--0-0-0-0-0-0-0-0----------|
_______________________________________________________________________
SOLO! w00t:
E :3-/10---8-7--8---8-/15--|--8-/14-12------------15--8-/7--|
B :----------------8--------|8----------12-h15-p12-----------|
G :-------------------------|--------------------------------|
D :-------------------------|--------------------------------|
A :-------------------------|--------------------------------|
E :-------------------------|--------------------------------|

E :8---------------------|
B :--8---8--7-8-10-------|
G :----------------------|
D :----------------------|
A :----------------------|
E :----------------------|
______________________________ DG_______________ DG________________________
E :------------3---3-|------3-3-2-2----------|3-3-2-2------------------|
B :------------3---3-|--------------3-1-3----|--------3-1-3------------|
G :------7-7---------|--------------------7-7|--------------7-7-7-7-7-7|
D :------7-7-------2-|--------------------7-7|--------------7-7-7-7-7-7|
A :2-2---5-5---2---3-|--2-2---------------5-5|--------------5-5-5-5-5-5|
E :0-0---------3-----|--0-0------------------|-------------------------|

E :-------------------------|
B :-------------------------|
G :7-7-7-7-7-7-7-7-7-7------|
D :7-7-7-7-7-7-7-7-7-7------|
A :5-5-5-5-5-5-5-5-5-5------|
E :-------------------------|
_______________________________________________________________________
E :-----------------------------|---------------------------|
B :-----------------------------|---------------------------|
G :----------------7-7-7-7-7-7-7|7-----------------5-5-5-5-5|(Solo overlaps here)
D :5-5-5-5-5-5-5-5-7-7-7-7-7-7-7|7-----------------5-5-5-5-5|
A :5-5-5-5-5-5-5-5-5-5-5-5-5-5-5|5-2-2-2-2-2-2-2-2-3-3-3-3-3|
This is the best tab i could find, the others seemed messed up,
listen to the song and u will realize that

Intro
E-----------------------------------------------------
B-----------------------------------------------------
G-----------------------------------------------------
D-------------------------------5-5--5---------------- x2
A---5-5—5----5-5—5----0-0-0-----3-3—3-----------------
E---3-3—3----2-2—2----2-2-2---------------------------

E------------------------------------------------------------
B------------------------------------------------------------
G------------------------------------------------------------
D----------------------00000000--55555555-------------------- x2
A--55555555--55555555--22222222--33333333--------------------
E--33333333--22222222----------------------------------------

Verse
E---3-3--3---3-3--3---3-3--3---3-3--3------------------------------
B---3-3--3---3-3--3---3-3--3---3-3--3------------------------------
G---0-0--0---0-0--0---0-0--0---0-0--0------------------------------
D---0-0--0---0-0--0---2-2--2---2-2--2-----------------------5------
A---2-2--2---2-2--2---2-2--2---3-3--3----------5------0-x8—-3-x8---
E---3-3--3---3-3--3----------------------------3-x16--2------------
P.M.
Pre-Chorus
E---3---3---
B---3---3---
G---0---0---
D---0---2---
A---2---3---
E---3-------

Chorus
E---3-------3-------3-------3----------
B---3-------3-------3-------3----------
G---0-------2-------0-------0----------
D---0--x8---0--x8---2--x8---2--x8------
A---2-------0-------2-------3----------
E---3-------2--------------------------
or you can just do the part of the intro wutever suits your needs

Verse x1
Pre-Chorus x1
Chorus x1

Solo
E------10-8-7-8-15--14-12---------15------15------15------15----14-15-----------
B—3/-----------8--12-------12-13--15-13-12--12-13---------15-12-15-13-----------
G---------------------------------------------------14-12----12-----------------
D-------------------------------------------------------------------------------
A-------------------------------------------------------------------------------
E-------------------------------------------------------------------------------
There are different strums for each note so these are just the notes

E--------------3--3--------3--------------
B--------------3--3--------3--------------
G--------------0--0--------0--------------
D--2-2--4-4----0--2--------2--------------
A--2-2--4-4----2--3---x2---3--------------repeated a bunch of times
E--0-0--2-2----3--------------------------