All-american Rejects — Swing Swing (ver 8)

Swing Swing – The All-American Rejects (Both Guitars)

(GUITAR 1)

Intro
E------------------------------------------
B------------------------------------------
G----------------------------------5-5--5--
D---5-5--5----5-5--5----2-2--2-----5-5--5-- x2
A---5-5—-5----5-5—-5----2-2--2-----3-3—-3--
E---3-3—-3----2-2—-2----0-0--0-------------

Then:
E-------------------------------
B-------------------------------
G---------7-------------5-------
D--5------7-(8x)-2------5-(8x)-- x2
A--5-(8x)-5------2-(8x)-3-------
E--3-------------0--------------

End Of Verse
E-----------------------------
B-----------------------------
G-----------------------------
D---------------------5-------
A---5--------2--------3-(8x)--
E---3-(16x)--0-(16x)----------
pm----------------------------

pre chorus
E-----------
B-----------
G---4---5---
D---4---5---
A---2---3---
E-----------

Chorus
E--------------------------------
B--------------------------------
G---------7---------------5------
D--5------7-(8x)--2-------5-(8x)- x2
A--5-(8x)-5-------2-(8x)--3------
E--3--------------0--------------

Verse
pre chorus
chorus

Solo
E-3/---10-8-7-8-15--14-12---------15------15------15------15----14-15--
B—-------------8--12-------12-13--15-13-12--12-13---------15-12-15-13--
G---------------------------------------------------14-12----12--------
D----------------------------------------------------------------------
A----------------------------------------------------------------------
E----------------------------------------------------------------------

E-----------------
B-----Pause-------
G------------7-7--
D---5-5------7-7--
A---5-5------5-5--
E---3-5-----------

E-3-3-2-2----------
B---------3-3-1-1--
G------------------ x2
D------------------
A------------------
E------------------

E---------
B---------
G-5-(x16)-
D-5-------
A-3-------
E---------

Chorus

-----------------------------

(GUITAR 2)

Intro (guitar 1)

Then
E---3-------3-------3-------3----------
B---3-------3-------3-------3----------
G---0-------2-------0-------0----------
D---0--x8---0--x8---2--x8---2--x8------ (2x)
A---2-------0-------2-------3----------
E---3-------2--------------------------

Verse Days swiftly come and go
E---3-3--3---3-3--3---3-3--3---3-3--3----------
B---3-3--3---3-3--3---3-3--3---3-3--3----------
G---0-0--0---0-0--0---0-0--0---0-0--0---------- (2x)
D---0-0--0---0-0--0---2-2--2---2-2--2----------
A---2-2--2---2-2--2---2-2--2---3-3--3----------
E---3-3--3---3-3--3----------------------------

E---3-------3-------3-------3----------
B---3-------3-------3-------3----------
G---0-------2-------0-------0----------
D---0--x8---0--x8---2--x8---2--x8------ (2x)
A---2-------0-------2-------3----------
E---3-------2--------------------------



Pre-Chorus I'll find someone new
E---3---3---
B---3---3---
G---0---0---
D---0---2---
A---2---3---
E---3-------

Chorus
E---3-------3-------3-------3----------
B---3-------3-------3-------3----------
G---0-------2-------0-------0----------
D---0--x8---0--x8---2--x8---2--x8------ x2
A---2-------0-------2-------3----------
E---3-------2--------------------------

Verse Days swiftly come and go
E---3-3--3---3-3--3---3-3--3---3-3--3----------
B---3-3--3---3-3--3---3-3--3---3-3--3----------
G---0-0--0---0-0--0---0-0--0---0-0--0----------
D---0-0--0---0-0--0---2-2--2---2-2--2---------- (2x)
A---2-2--2---2-2--2---2-2--2---3-3--3----------
E---3-3--3---3-3--3----------------------------

E---3-------3-------3-------3----------
B---3-------3-------3-------3----------
G---0-------2-------0-------0----------
D---0--x8---0--x8---2--x8---2--x8------ (2x)
A---2-------0-------2-------3----------
E---3-------2--------------------------

Pre-Chorus I'll find someone new
E---3---3---
B---3---3---
G---0---0---
D---0---2---
A---2---3---
E---3-------


Chorus
E---3-------3-------3-------3----------
B---3-------3-------3-------3----------
G---0-------2-------0-------0----------
D---0--x8---0--x8---2--x8---2--x8------ x2
A---2-------0-------2-------3----------
E---3-------2--------------------------

Verse

Bridge Bury Me
E---3-------3----------------------
B---3-Pause-3----------------------
G---0-------0----------------------
D---0-------2----------------------
A---2-------3----------------------
E---3------------------------------


E-3----------------------
B-3----------------------
G-0-x16------------------
D-2----------------------
A-3----------------------
E------------------------

Chorus
E---3-------3-------3-------3----------
B---3-------3-------3-------3----------
G---0-------2-------0-------0----------
D---0--x8---0--x8---2--x8---2--x8------ x2 Then goes into almost same solo again
A---2-------0-------2-------3----------
E---3-------2--------------------------


LYRICS:

Days swiftly come and go.
I'm dreaming of her
She's seeing other guys
Emotions they stir
The sun is gone.
The nights are long
And I am left while the tears fall.

Did you think that I would cry,
on the phone?
Do you know what it feels like,
being alone?
I'll find someone new

Swing, Swing, Swing from the tangles of
My heart is crushed by a former love
Can you help me find a way
To carry on again.

Wish cast into the sky
I'm moving on
Sweet beginnings do arise
She knows I was wrong
The notes are old,
They bend, they fold
and so do I to a new love.

Did you think that I would cry,
on the phone?
Do you know what it feels like,
being alone?
I'll find someone new

Swing, Swing, Swing from the tangles of
My heart is crushed by a former love
Can you help me find a way
To carry on again.

Bury me
(you thought your problems were gone)
Carry me
(away. away, away...)

Swing, Swing, Swing from the tangles of
My heart is crushed by a former love
Can you help me find a way
To carry on again.

Swing, Swing, Swing from the tangles of
My heart is crushed by a former love
Can you help me find a way
To carry on again.

Swing, Swing, Swing from the tangles of
My heart is crushed by a former love
Can you help me find a way..