All-american Rejects — Time Stands Still

На этой странице Вы можете ознакомиться с 5 версиями подбора аккордов для гитары к песне "Time Stands Still" группы (исполнителя) "All-american Rejects".

Hello :) Those other chords weren't quite all there... so I thought I'd send my
way of playing it. Not that great but, ahem, allright comparatively speaking. Peace.

Intro

G D Em C
O-o-o
G D Em C
O-o-o

Verse 1

G D C
Him and her
G D C
Life is turned.
G D C
The day I knew you would leave
G D C
I can barely breath
(C) G
Can you hear me scream?

Chorus

D Em C
O-o-o thrown in all directions
G D Em C
O-o-o epitome of perfection
(G) D C
She's lost her will,(She's lost her will)
G D C
Time is standing still

G D C
He walks, her, home
G D C
Now he walks a-lone
G D C
The days, they turn into years
G D C
The eyes, they drown in tears
G
Can you hear me scream?

Bridge
Em G
The way we are the way they were
C D Em
(It's just a shadow of what's wrong)
Em G
The time with you the time is stirred
C D Em
(I love you for, so long)
Em G
The hearts they turn, they turn away
C D Em
(She says to go please don't you cry)
Em G C
Love lost was found, night turns to day

O-o-o thrown in all directions
O-o-o Epitome of perfection
She's lost her will,
Time is standing still

O-o-o thrown in all directions
O-o-o Epitome of perfection
She's lost her will, (she's lost her will)
Time is standing still

O-o-o
O-o-o
O-o-o

Time is standing still
I can't guarantee if these tabs are a hundred percent correct... don't go barking
at me if i go wrong, i'm twelve years old and this is my first tab. enjoy!

G D C Em
Him and her
G D C Em
Life is turned
G D C Em
The day I knew you would leave
G D C Em
I can barely breathe
Em
Can you hear me scream?


G C Em
(o-o-o) Thrown in all directions
G C Em
Epitome of perfection
G C Em
She lost her will
G C Em
Time is standing still

G D C Em
Walks her home
G D C Em
Now he walks alone
G D C Em
The days they turn into years
G D C Em
The eyes they drown in tears
Em
Can you hear me scream?


G C Em
(o-o-o) Thrown in all directions
G C Em
Epitome of perfection
G C Em
She lost her will
G C Em
Time is standing still

G C
The way we are, the way we were
Em
It's just a shadow of what's wrong
G C
The time with you, the time is stirred
Em
I love you for so long
G C
The hearts they turn, they turn away
Em
she says to go please don't you cry
G C
Love lost was found, night turns to day


G C Em
(o-o-o) Thrown in all directions
G C Em
Epitome of perfection
G C Em
She lost her will
G C Em
Time is standing still


Time is standing still
A L L - A M E R I C A N  R E J E C T S

-Time Stands Still-

bass comes in
they day i knew you would leave....
(the days they turn into years)....
G|-------------------
D|-------------------
A|--3333-------------
E|-------3333--1111-1
-------------------------------------------------------------------------------
TIME STANDS STILL – All American Rejects
-------------------------------------------------------------------------------

Tabbed by:Tony
Email:fishboneul03@yahoo.com
My first tab, be kind

Tuning:standard

Intro/verses (acoustic)
e|--xx-0--0—-0x0--0--0-xx--1--1--111--1-1-|
B|--xx-1--1—-1x1--1--1-xx--1--1--111--1-1-|
G|--xx-0--0—-0x0--0--0-xx--2--2--222--2-2-|
D|--xx-2--2—-2x0--0--0-xx--2--2--222--2-2-|
A|--xx-3--3—-3x2--2--2-xx--0--0--000--0-0-|
E|--xx--------x--------xx-----------------| repeat as necessary

Chorus (Electric with distortion)
e|--------------------------------------|
B|--------------------------------------|
G|--------------------------------------|
D|--------------------------------------|
A|---10-10-xxx--7--7-xx--3--3-333--3--3-|
E|---8--8--xxx--5--5-xx--1--1-111--1--1-|

Youuuuu…..(electric with distortion)
e|----------------------------------------------|
B|----------------------------------------------|
G|----------------------------------------------|
D|-------------12--12--xx--10-10-101010-10—-10--|
A|---10-10-xxx-10—-10--xx--8—-8--8-8-8--8---8---|
E|---8--8--xxx—---------------------------------|

The way we are….(Electric with Distortion)
e|---------------------------------------------------------------------------|
B|---------------------------------------------------------------------------|
G|---------------------------------------------------------------------------|
D|--------------------555----------------------------------------------------|
A|--2-3-3--2-2-3-3-3--333----------------------------------------------------|
E|--0-1-1--0-0-1-1-1---------------------------------------------------------|

Other than the piano parts, that’s all you need, the strum pattern isn’t to hard
to figure out. Repeat the parts as many times as necessary..i’m to lazy to
figure it out myself

| / slide up
| slide down
| h hammer-on
| p pull-off
| ~ vibrato
| + harmonic
| x Mute note with fretting hand
===============================================================================
Intro
this is the same as a previous tab of this song, but with a few minor alterations.
it sounds correct to me.

(acoustic)
e|---------1---
b|-1-x-1-x-1---
g|-0-x-0-x-2---
d|-2-x-0-x-3---
a|-3-x-2-x-----
e|-------------

(electric(distortion)) Youooooo....
e|---------------------
b|---------------------
g|------12--10---------
d|--10--12--10---------
a|--10--10--8----------
e|--8------------------

background picking..Intro/Verse
e|--------------
b|--------------
g|---------5----
d|-------5---5--
a|-----3--------
e|--------------

-play intro part for verses

bass comes in (with background picking)
they day i knew you would leave....
(the days they turn into years)....
g|-------------------
d|-------------------
a|--3333-------------
e|-------3333--1111-1