All-american Rejects — Why Worry

На этой странице Вы можете ознакомиться с 2 версиями подбора аккордов для гитары к песне "Why Worry" группы (исполнителя) "All-american Rejects".

Verse:
G-----------------------------------------
D-----------------------------------------
A-666666666666-555555555555-333333-111111-
E-----------------------------------------x2

Pre-Chorus:
G-----------------------------------------
D-----------------------------------------
A-66-66--66-66--66-66--66-66-111111111111-
E-----------------------------------------

Chorus:
G-------------------------------------
D-------------------------------------
A-66666666-55555555-33333333-11111111-
E-------------------------------------x2

Bridge: Same as Pre-Chorus
Song   - Why Worry
Artist - The All American Reject
Tabber - Eaiddhi ( eaiddhi@baganmail.net.mm)
Tuning - Eb,Ab,Db,Gb,Bb,Eb
pm - palm muted
h - harmomic

Intro
e |-000-0-0-00-0-0-0-00-0-0-0-00-0-0-0---|
b |-000-0-0-00-0-0-0-00-0-0-0-00-0-0-0---|
g |-111-1-1-11-1-1-1-11-1-1-1-11-1-1-1-Repeatx2-|
d |-222-2-2-22-2-2-2-22-2-2-2-22-2-2-2---|
a |-222-2-2-22-2-2-2-22-2-2-2-22-2-2-2---|
e |-000-0-0-00-0-0-0-00-0-0-0-00-0-0-0---|

e |-000-0-0-00-0-0-0-00-0-0-0-00-0-0-0---|
b |-000-0-0-00-0-0-0-00-0-0-0-00-0-0-0---|
g |-111-1-1-11-1-1-1-11-1-1-1-11-1-1-1---|
d |-222-2-2-22-2-2-2-22-2-2-2-22-2-2-2---|
a |-222-2-2-22-2-2-2-22-2-2-2-22-2-2-2---|
e |-000-0-0-00-0-0-0-00-0-0-0-00-0-0-0---|

I worry, I wonder all the time

e |-0-0-0-00-0-0-0-00-0-0-0-00-0-0-0-00-|
b |-0-0-0-00-0-0-0-00-0-0-0-00-0-0-0-00-|
g |-1-1-1-11-1-1-1-11-1-1-1-11-1-1-1-11-|
d |-2-2-2-22-2-2-2-22-2-2-2-22-2-2-2-22-|
a |-0-0-0-00-0-0-0-00-0-0-0-00-0-0-0-00-|
e |-0-0-0-00-0-0-0-00-0-0-0-00-0-0-0-00-|

why worry

e |-0-0-0-00-0-0-0-00--00-0--|
b |-2-2-2-22-2-2-2-22--00-0--|
g |-1-1-1-11-1-1-1-11--22-2--|
d |-2-2-2-22-2-2-2-22--22-2--|
a |-0-0-0-00-0-0-0-00--00-0--|
e |-0-0-0-00-0-0-0-00--00-0--|

It's killing me forget about it
Verse #1
Guitar #1
e |----------------------------|
b |----------------------------|
g |----------------------------|
d |-2-x32-9-x16-7-x16-2-x16----|
a |-2-----9-----7-----2--------|
e |-0-----7-----5-----0--------|
Guitar #2
e |----------------------------------------------------|
b |----------------------------------------------------|
g |-9998-9-11--11111111-repeat x4-9998889991111111111--|
d |-9999-9--9---9-9-9-9-----------999999999-9-9-9-9----|
a |----------------------------------------------------|
e |----------------------------------------------------|
I whisper, remember what she did Don't miss her Set me free, she won't allow it
She's binding, can't do a thing alone Rewinding
Times before, can't live without it
Pre Chorus
Guitar #1
e |---------------------------------------------------------------|
b |---------------------------------------------------------------|
g |---------------------------------------------------------------|
d |-7-7--7-7--------7-7--7-7--------2-2--2-2-------2-2--2-2-------|
a |-7-7--7-7-7h-7h--7-7--7-7-7h-7h--2-2--2-2-------2-2--2-2-------|
e |-5-5--5-5--------5-5--5-5--------0-0--0-0-7h-7h-0-0--0-0-7h-7h-|
Angry and gone, and the list goes on and o
I don't know But you did but you did ut yo-ou did
Please don't go Now my feelings for you they're now lost
'cause we're through anymore
Guitar #1
pm (open at last bar)
e |----------------|
b |----------------|
g |----------------|
d |-99999999-x 4---|
a |-99999999-------|
e |-77777777-------|
Guitar #2
e |--------------------------------------|
b |--------------------------------------|
g |------------9-------------------------|
d |------9------------9------repeat x 4--|
a |---9pm--9pm---9pm---------------------|
e |-7pm-----------------7pm--------------|
If it's love, I will differ, I'm being lost being with her
Chorus
Guitar #1
e |----------------------------------------------|
b |----------------------------------------------|
g |-----------------6666-x4------------repeat x2-|
d |-2222-x4-7777-x4-6666-----9999-x4-------------|
a |-2222----7777----4444-----9999----------------|
e |-0000----5555-------------7777----------------|
Guitar #2
e |----------------------------------------|
b |----------------------------------------|
g |--------9------11---9---8--repeat x 16--|
d |----9pm--9pm---9pm----------------------|
a |-7pm------------------------------------|
e |----------------------------------------|
I can't move on, I can't take it She, she says we won't ma-a-ake it now x 2
Guitar #2
e |-12-------12--------------|
b |----12-10---12-10-9-------|
g |-----------------------9--|
d |--------------------------|
a |--------------------------|
e |--------------------------|
Verse #2
Guitar #1
e |--------------------------|
b |--------------------------|
g |--------------------------|
d |-2-x32-9-x16-7-x16-2-x16--|
a |-2------9------7------2---|
e |-0------7------5------0---|
Guitar #2
e |--------------------------------------------------------|
b |--------------------------------------------------------|
g |-9998-9-11--11111111---repeat x 4-9998-9-11--11111111---|
d |-9999-9--9---9-9-9-9--------------9999-9--9---9-9-9-9---|
e |--------------------------------------------------------|
e |--------------------------------------------------------|
Be-lieving, the things i did were wrong I'm leaving It fades a-way, forget about it
(Verse #1)
(Pre Chorus)
(Chorus)
(Pre Chorus)
Guitar #1
e |------------------7-x-7-x--|
b |------------------10--9----|
g |-6666-x4----------9---9----|
d |-6666----9999-x4--9---9----|
a |-4444----9999-----7---7----|
e |---------7777--------------|
( I'm not sure about the rythm part)
Guitar #2
e |-----------------------------------|
b |-----------------------------------|
g |---------9-----11----9--8-repeatx4-|
d |----9pm---9pm---9pm----------------|
a |-7pm-------------------------------|
e |-----------------------------------|
I'll write you , I'll call you Now
forget about it
Guitar #2
e |-12-------12-----------|
b |----12-10---12-10-9----|
g |--------------------9--|
d |-----------------------|
a |-----------------------|
e |-----------------------|

(Chorus) Fade out.

The solo are not sure but this song is a really good song.
Play as well enjoy yourself.
If you have any conpliant contact to (eaiddhi@baganmail.net.mm)