All Star United — Smash Hit

На этой странице Вы можете ознакомиться с 2 версиями подбора аккордов для гитары к песне "Smash Hit" группы (исполнителя) "All Star United".

Author/Artist: ALL STAR UNITED
Title: SMASH HIT
Transcribed by: KENNY BOCHAT
Email: KRBX3@email.msn.com

verse1

------------------------------------------------------------------------------
------------------------------------------------------------------------------
------------------------------------------------------------------------------
-55-99-22-10-10-10-9----55-99-22-12-12-12-11----------------------------------
intro(and chorus)

------------------------------------------------------------------------------
------------------------------------------------------------------------------
------------------------------------------------------------------------------
-5-4-2-10--5-4-2-10-----10-10-10-10-101010------------------------------------
verse bridge

------------------------------------------------------------------------------
------------------------------------------------------------------------------
------------------------------------------------------------------------------
-55-99-22-10-10-10-9---55-99-22-12-12-12-11-----------------------------------
chorus

------------------------------------------------------------------------------
------------------------------------------------------------------------------
------------------------------------------------------------------------------
-5-4-2-10--5-4-2-10------------10-10-10-10-101010-----------------------------
verse2 bridge

------------------------------------------------------------------------------
------------------------------------------------------------------------------
------------------------------------------------------------------------------
-55-99-22-10-10-10-9---55-99-22-12-12-12-11-----------------------------------
chorus repeat
Tabbed by blink1skate2@hotmail.com
my second tab (my first was Bon Jovi-One Wild Night)

ALL STAR UNITED - SMASH HIT

guitar intro

INTRO
G|-----------|
D|-----------|
A|--7-7-7-6--|
E|-----------|

CHORUS
G|---------------------------------------------|
D|---------------------------------------------|
A|------4-4------5-5-5-4------4-4-----7-7-7-6--|
E|--5-5-----2-2-----------5-5-----2-2----------|

VERSE
G|-----------|
D|-----------|
A|--------5--|
E|--5-4-2----|

BRIDGE
G|----------------|
D|----------------|
A|------7------5--|
E|--5-5----5-5----|