All — Worlds On Heroin

-------------------------------------------------------------------------------
THE WORLD'S ON HEROIN - All
-------------------------------------------------------------------------------

By: Robin Krier
Corrections by: Jim Miller

Intro/outro
e|-------------------------------------------0------------------------|
B|-------------------------------------------3------------------------|
G|-------------------------------------------2------------------------|
D|-5-5-5-5-8-8-8-8-------------------------0------------------------|
A|-5-5-5-5-8-8-8-8--slide hand down neck----------------------------|
E|-3-3-3-3-6-6-6-6--------------------------------------------------|

Verse
e|--------------------------------------------------------------------|
B|--------------------------------------------------------------------|
G|-7-7-7-7-7-7-7-7----------------------------------------------------|
D|-7-7-7-7-7-7-7-7-5--5-5-5-8-8-8-8-----------------------------------|
A|-5-5-5-5-5-5-5-5-5--5-5-5-8-8-8-8-----------------------------------|
E|-----------------3--3-3-3-6-6-6-6-----------------------------------|

Pre-chorus
e|--------------------------------------------------------------------|
B|--------------------------------------------------------------------|
G|---------10-9--7---------10-9--7-------10-9--7----------------------|
D|-7-7-7-7-10-9--7-7-7-7-7-10-9--7-7-7-7-10-9--7-7-7-7-7-7-7-7-7------|
A|-7-7-7-7-8--7--5-7-7-7-7-8--7--5-7-7-7-8--7--5-7-7-7-7-7-7-7-7------|
E|-5-5-5-5---------5-5-5-5---------5-5-5---------5-5-5-5-5-5-5-5------|

Chorus
e|--------------------------------------------------------------------|
B|--------------------------------------------------------------------|
G|-9-9-9-9-12-12-12-12-7-7-7-7---------9-9-9-9---------7-7-7-7--------|
D|-9-9-9-9-12-12-12-12-7-7-7-7-9-9-9-9-9-9-9-9-7-7-7-7-7-7-7-7--------|
A|-7-7-7-7-10-10-10-10-5-5-5-5-9-9-9-9-7-7-7-7-7-7-7-7-5-5-5-5--------|
E|-----------------------------7-7-7-7---------5-5-5-5----------------|

Bridge pt. 1
e|--------------------------------------------------------------------|
B|--------------------------------------------------------------------|
G|--------------------------------------------------------------------|
D|---10---10---9---9---5---5---7---7---(x2)---------------------------|
A|--------------------------------------------------------------------|
E|-8----8----7---7---3---3---5---5------------------------------------|

Bridge pt. 2
e|--------------------------------------------------------------------|
B|--------------------------------------------------------------------|
G|--------------------------------------------------------------------|
D|-10-10-10-10-9-9-9-9-5-5-5-5-7-7-7-7-10-10-10-10--------------------|
A|-10-10-10-10-9-9-9-9-5-5-5-5-7-7-7-7-10-10-10-10--------------------|
E|-8--8--8--8--7-7-7-7-3-3-3-3-5-5-5-5-8--8--8--8---------------------|
|-P.M.-----------------------------|

Last Chorus
e|------------------------------------------------------------------------|
B|------------------------------------------------------------------------|
G|-9-9-9-9-12-12-12-12-7-7-7-7---------9-9-9-9---------7-7-7-7----7-6-5-4-| (walkdown
D|-9-9-9-9-12-12-12-12-7-7-7-7-9-9-9-9-9-9-9-9-7-7-7-7-7-7-7-7----7-6-5-4-| part)
A|-7-7-7-7-10-10-10-10-5-5-5-5-9-9-9-9-7-7-7-7-7-7-7-7-5-5-5-5----5-4-3-2-|
E|-----------------------------7-7-7-7---------5-5-5-5--------------------|