Allister — Fraggle Rawk

На этой странице Вы можете ознакомиться с 4 версиями подбора аккордов для гитары к песне "Fraggle Rawk" группы (исполнителя) "Allister".

allister
fraggle rock(cover)
tabbed by Daniel182

this song is real fun to play and real easy to play, the other tabs
were good but just a bit off. please rate this tab

intro
|-----------|
|-----------|
|-3-3-3-1h2-|x4
|-----------|

pre verse
|---------------------------------|
|---------------------------------|
|-33333333--------55555555--------|x1
|---------11111111--------33-33-3-|

verse 1
|------------------|
|------------------|
|-3333--------3333-|x4
|-----1--33-11-----|

pre verse
|---------------------------------|
|---------------------------------|
|-33333333--------55555555--------|x1
|---------11111111--------33-33-3-|

verse 2
|------------------| |--------------|
|------------------| |--------------|
|-3333--------3333-|x3|-3333---------|x1
|-----1--33-11-----| |-----1---3~~~-|

pre verse
|---------------------------------|
|---------------------------------|
|-33333333--------55555555--------|x1
|---------11111111--------33-33-3-|

Verse 3
|--------------------| |----------------------------------|
|--------------------| |----------------------------------|
|-3333----------3333-|x3|-3333----------3~------3~-------3-|x1
|-----1111-33-11-----| |-----1111-33-11---33-11--3--------|
-------------------------x4
-------------------------x4
-3-3-3-1-2---------------x4
-------------------------x4

thats just the intro
i am SO tired of fraggle rock being a WRONG TAB so here it is.
THE RIGHT TAB FOR FRAGGLE ROCK!!!!!!


high e------------------------------------------------------------------
---------------------------------------------------2-------0-0--2-3-4---
---------------------------3-3-3-1-3/------0-2-4-0---4-2-0--------------
--------------4----5-4--------------------------------------------------
----------3-5----3-----5-3----------------------------------------------
low e-------------------------------------------------------------------


if u want, email me and ill work on the chords, if not, i dont care


but that is IT!!! the CORRECT TABS!!!! and the other crap tabs are CRAP!!!!
dO NOT USE OTHER TABS!!! THEY ARE WRONG!!!!!! THESE ARE THE CORRECT TABS!!!!!
-------------------------------------------------------------------------------
Fraggle Rawk - Allister
-------------------------------------------------------------------------------
Tabbed by: Mike G

Tuning: EADGBE

INTRO: Guitar 1
e|---------------------------------------------------------------------------|
B|---------------------------------------------------------------------------|
G|-5-5-5-5-5-5-5-2-2-2-2-2-2-2-2-7-7-7-7-7-7-7-7-12-12-12-12-12-12-12-12-----|
D|-5-5-5-5-5-5-5-2-2-2-2-2-2-2-2-7-7-7-7-7-7-7-7-12-12-12-12-12-12-12-12-----|
A|-3-3-3-3-3-3-3-0-0-0-0-0-0-0-0-5-5-5-5-5-5-5-5--8--8--8--8--8--8--8--8-----|
E|---------------------------------------------------------------------------|

INTRO: Guitar 2
e|------------------------------------------------7--------------------------|
B|----------------6-6-6-6--6-6-6-----7-----7-8-10----------------------------|
G|------------------------------7-9---7-9------------------------------------|
D|-5-7-5-7-------------------------------------------------------------------|
A|---------7-5-3-------------------------------------------------------------|
E|---------------------------------------------------------------------------|

VERSE: Guitar 1 - 2x
e|---------------------------------------------------------------------------|
B|---------------------------------------------------------------------------|
G|-5-5--2--4-4-2-0--5-5-5-5-5--2--4-4-2-0--5---------------------------------|
D|-5-5--3--4-4-3-0--5-5-5-5-5--3--4-4-3-0--5---------------------------------|
A|-3-3--3--2-2-3----3-3-3-3-3--3--2-2-3----3---------------------------------|
E|---------------------------------------------------------------------------|

VERSE: Guitar 2 - 2x
e|---------------------------------------------------------------------------|
B|---------------------------------------------------------------------------|
G|-5-5--2--4-4-2----5-5-5-5-5--2--4-4-2----5---------------------------------|
D|-5-5--2--4-4-2-5--5-5-5-5-5--2--4-4-2-5--5---------------------------------|
A|-3-3--0--2-2-0-5--3-3-3-3-3--0--2-2-0-5--3---------------------------------|
E|---------------3----------------------3------------------------------------|

OUTRO: Guitars 1-2
e|---------------------------------------------------------------------------|
B|---------------------------------------------------------------------------|
G|-5-5-5-5-5-5-5-2-2-2-2-2-2-2-4-4-4-4-2-2-2-2-5-5-5-5-5-5-------------------|
D|-5-5-5-5-5-5-5-2-2-2-2-2-2-2-4-4-4-4-2-2-2-2-5-5-5-5-5-5-------------------|
A|-3-3-3-3-3-3-5-0-0-0-0-0-0-0-2-2-2-2-0-0-0-0-3-3-3-3-3-3-------------------|
E|---------------------------------------------------------------------------|

e|---------------------------------------------------------------------------|
B|---------------------------------------------------------------------------|
G|-4-4-2-2-5-5-5-5-4-4-2-2-5-------------------------------------------------|
D|-4-4-2-2-5-5-5-5-4-4-2-2-5-------------------------------------------------|
A|-2-2-0-0-3-3-3-3-2-2-0-0-3-------------------------------------------------|
E|---------------------------------------------------------------------------|

| / slide up
| slide down
| h hammer-on
| p pull-off
| ~ vibrato
| + harmonic
| x Mute note
===============================================================================