Allister — I Told You So

Allister - I Told You So

Intro
e|-------------------------------|
B|-------------------------------|
G|---7-5-9-7---7-4-4-4-5-7-------|
D|-5-7-5-9-7-5-7-4-4-4-5-7-------|
A|-5-5-3-7-5-5-5-2-2-2-3-5-------|
E|-3---------3-------------------|
Verse:

No Guitar

Until...
e|-------------------------------|
B|-------------------------------|
G|--5--7-------------------------|
D|--5--7-------------------------|
A|--3--5-------------------------|
E|-------------------------------|
Chorus
e|-------------------------------|
B|-------------------------------|
G|---7-5-9-7---7-4-4-4-5-7-------|
D|-5-7-5-9-7-5-7-4-4-4-5-7-------|
A|-5-5-3-7-5-5-5-2-2-2-3-5-------|
E|-3---------3-------------------|