Allister — Moper

На этой странице Вы можете ознакомиться с 2 версиями подбора аккордов для гитары к песне "Moper" группы (исполнителя) "Allister".

Allister
Moper
Tabbed By Daniel182

this song is my all-time favourite allister song, its easy to play...please
rate this tab.thanx!

intro(00:09)
|--------------------------------------------|
|--------------------------------------------|
|------------77777-55555-------------7~~~5~-|x1
|-55555-22222------------55555-22222---------|

Verse 1
|-------------------------------------|
|-------------------------------------|
|----------------------------55555555-|x2
|-55555555-00000000-22222222----------|

Pre Chorus
|--------------------------------|
|--------------------------------|
|-77777777-55555555--77777777-5~-|x1
|--------------------------------|

Chorus
|-------------------------| |-------------------------------|
|-------------------------| |-------------------------------|
|-------------77777-55555-|x3|------------77777777-555555555-|x1
|-55555-22222-------------| |-55555-22222-------------------|

Verse 2
|-------------------------------------|
|-------------------------------------|
|----------------------------55555555-|x2
|-55555555-00000000-22222222----------|

Pre Chorus
|--------------------------------|
|--------------------------------|
|-77777777-55555555--77777777-5~-|x1
|--------------------------------|

Chorus
|-------------------------| |-------------------------------|
|-------------------------| |-------------------------------|
|-------------77777-55555-|x3|------------77777777-555555555-|x1
|-55555-22222-------------| |-55555-22222-------------------|

Bridge
|--------------------------------------------------------------------|
|--------------------------------------------------------------------|
|-22-44-55555555--00-55-77777777--22-44-55555555-7777777777777777--5~|x1
|--------------------------------------------------------------------|

Chorus/Outro
|-------------------------| |---------------------------------|
|-------------------------| |---------------------------------|
|-------------77777-55555-|x3|------------77777777-555555555-0~|x1
|-55555-22222-------------| |-55555-22222---------------------|
Allister - Moper
Tabbed By: Kevin K
EMail: kickin570@hotmail.com


Intro
E---------------------------------------------------------------------------------------
B---------------------------------------10-9-7------------------------------------------
G-6h7h8-8-8-8-6h7h8-8-8-8-6h7h8-8-8-8-6--------6h7h8-8-8-8-6h7h8-8-8-8-2---4h6h7-7-7-6-4
D----------------------------------------------------------------------------------------
A----------------------------------------------------------------------------------------
E----------------------------------------------------------------------------------------


Intro (second guitar) (Its also later the Chorus, only each chord doesn't ring,
it follows a pattern similar to that of the verse)
E-----------------
B-----------------
G-2-----------9---
D-2---4---2---9---
A-0---4---2---7---
E-----2---0-------

Verse
E------------------------------------B------------------------------------
G-22222222-------------------99999999
D-22222222-44444444-22222222-99999999
A-00000000-44444444-22222222-77777777
E----------22222222-00000000---------

Pre Chorus
E--------------------------------B--------------------------------
G-99999999-77777777-99999999-7---D-99999999-77777777-99999999-7---
A-77777777-55555555-77777777-5---E--------------------------------

Then the Chorus is the second guitar in the intro repeated 4 times

The Bridge is just power chords yet again, so ill put the notes

B B C# D D D D D A A D E E E E E

Then Back to the chorus