Allister — Radio Player

На этой странице Вы можете ознакомиться с 3 версиями подбора аккордов для гитары к песне "Radio Player" группы (исполнителя) "Allister".

Allister - Radio Player
By:Andrew Mcshan(Guitarguyx182@aol.com)

Intro
(Guitar 1)
e|--------------------------------------------------------|
B|---0h5p0h5p0h5-0h5p0h5p0h5--5-4-7-4-5-4-----------------|
G|--------------------------------------------------------|
D|--------------------------------------------------------|
A|--------------------------------------------------------|
E|--------------------------------------------------------|
(Guitar 2)
e|--------------------------------------------------------|
B|--------------------------------------------------------|
G|-4------------------------------------------------------|
D|-4--------4------2-----4--------------------------------|
A|-2--------4------2-----4--------------------------------|
E|----------2------0-----2--------------------------------|

Verse
e|--------------------------------------------------------|
B|--------------------------------------------------------|
G|-4-4----------------------------------------------------|
D|-4-4--2--4-4--------------------------------------------|
A|-2-2--2--4-4--------------------------------------------|
E|------0--2-2--------------------------------------------|

Pre Chorus
e|--------------------------------------------------------|
B|--------------------------------------------------------|
G|-----4-------4------4-----------------------------------|
D|-2---4---2---4---2--4----4------------------------------|
A|-2---2---2---2---2--2----4------------------------------|
E|-0-------0-------0-------2------------------------------|

Chorus
e|--------------------------------------------------------|
B|--------------------------------------------------------|
G|-4------------------------------------------------------|
D|-4-----6--------2------4--------------------------------|
A|-2-----6--------2------4--------------------------------|
E|-------4--------0------2--------------------------------|

Btidge
e|--------------------------------------------------------|
B|--------------------------------------------------------|
G|-4------------------------------------------------------|
D|-4------2-------4---------------------------------------|
A|-2------2-------4---------------------------------------|
E|--------0-------2---------------------------------------|

e|-------0--------0----------0----------------------------|
B|-0--0-----5--5------6--6--------------------------------|
G|--------------------------------------------------------|
D|--------------------------------------------------------|
A|--------------------------------------------------------|
E|--------------------------------------------------------|
-------------------------------------------------------------------------------
Radio Player - Allister
-------------------------------------------------------------------------------

Tabbed by: Brian
Email: guitar_freak7@msn.com

Tuning:Standard

Intro

e|-------------------|
B|-------------------|
G|-9p8h9-------------|
D|-------------------|
A|-------------------|
E|-------------------|


Guitar 1 strum these chrods
e|----------------------------| X2
B|----------------------------|
G|--4-------------------------|
D|--4-----4-----2----4--------|
A|--2-----4-----2----4--------|
E|--------2-----0----2--------|
Guitar 2
e|---------------------------------------| X8
B|---------------------------------------|
G|-9-9-9-8-8-8-10-10-10-8-8-8-9-9-9-8-8-8|
D|---------------------------------------|
A|---------------------------------------|
E|---------------------------------------|

(if u listen closely, there is a thrid guitar playing this at 0:16)
strum these octaves
e|---------------| X4
B|---------------|
G|-9-8-6-4-------|
D|---------------|
A|-7-6-4-2-------|
E|---------------|


Verse
(palm mute the chords before playing it accented)

Guitar 1
e|------------------| X4
B|------------------|
G|--4--4------------|
D|--4--4---2--4-----|
A|--2--2---2--4-----|
E|---------0--2-----|

Pre-Chorus

Guitar 1 (strum these chords)
e|------------|X3
B|------------|
G|------4-----|
D|--2---4-----|
A|--2---2-----|
E|--0---------|

(after that you strum)
Guitar 1
e|-----------|
B|-----------|
G|-----------|
D|-4---------|
A|-4---------|
E|-2---------|

Guitar 2 (gutar 2 strums the F# power chord then moves to an octave chord)
e|-------------|
B|-------------|
G|-------11----|
D|--4----------|
A|--4----9-----|
E|--2----------|


Chorus
Guitar 1 and 2 (strum these chords)
e|-----------------|
B|-----------------| X4
G|-4---------------|
D|-4---6---2---4---|
A|-2---6---2---4---|
E|-----4---0---2---|

(the fourth time guitar 2 plays these to octaves over and over)

e|---------|
B|-12-11---|
G|---------|
D|-7--6----|
A|---------|
E|---------|


Intro (Cut in half and without 3rd guitar)


Verse


(on the fourth time of the verse the 2nd guitar plays this riff)




e|-------------------------|
B|--/9-7-------------------|
G|--------9-8--------------|
D|------------9-11-9-11----|
A|-------------------------|
E|-------------------------|


Pre-Chorus


Chorus (X8)


Pre-Bridge

Guitar 1 and 2
(strum these power chords)
e|-----------------------| X2
B|-----------------------|
G|--------------4--------|
D|--6---4---2---4--4-----|
A|--6---4---2---2--4-----|
E|--4---2---0------2-----|

(palm mute the e power chord and the F# power chord)

e|-----------------------| X2
B|-----------------------|
G|-----------------------|
D|--6---4---2--4---------|
A|--6---4---2--4---------|
E|--4---2---0--2---------|

Bridge
Gutiar 1 (Play throughout the bridge)
e|------------------------------------------------------------------|
B|------------------------------------------------------------------|
G|-----8-------8-------8-------8-------9-------9--------9-------9---|
D|---9---9---9---9---9---9---9---9---9---9---9---9----9---9---9---9-|
A|-----------------6-------6-------7-------7--------7-------7-------|
E|-7-------7--------------------------------------------------------|

Guitar 2

(listen to the song to see when u strum the b power chord)
e|------|
B|------|
G|--4---|
D|--4---|
A|--2---|
E|------|

Chorus


Outro


e|---------------------------------------------------------------------------|
B|---------------------------------------------------------------------------|
G|--4--4----------------------4--4-------------------------------------------|
D|--4--4---6--6--2--2---4--4--4--4-------------------------------------------|
A|--2--2---6--6--2--2---4--4--2--2-------------------------------------------|
E|---------4--4--0--0---2--2-------------------------------------------------|


Thats it. This is a great song and all of their songs are great. Enjoy.
Song: Radio Player
Band: Allister
Album: Last Stop Suburbia
This is a really good song from a really cool band.
It didn’t have a tab that was completely correct, so I posted one. Please rate it!

*=palm mute h=hammer on p=pull off

Intro 1
|---------------------------|
|-4h5p4(Repeat for a while)-|
|---------------------------|
|---------------------------|
|---------------------------|
|---------------------------|

Intro 2 x2
|---------------------------------------------------------------------|
|---------------------------------------------------------------------|
|-4444444444444444----------------------------------------------------|
|-4444444444444444-4444444444444444-2222222222222222-4444444444444444-|
|-2222222222222222-4444444444444444-2222222222222222-4444444444444444-|
|------------------2222222222222222-0000000000000000-2222222222222222-|

Verse x4
|---------------------|
|---------------------|
|-44-4-44-4-----------|
|-44-4-44-4-22-2-44-4-|
|-22-2-22-2-22-2-44-4-|
|-----------00-0-22-2-|
** ** ** **

Pre-chorus part 1 x3
|-------------------|
|-------------------|
|----------44444444-|
|-22222222-44444444-|
|-22222222-22222222-|
|-00000000----------|

Pre-chorus part 2 1x
|--------------------|
|--------------------|
|--------------------|
|-4444444444444444---|
|-4444444444444444---|
|-2222222222222222---|

Chorus x4
|-----------------|
|-----------------|
|-444-------------|
|-444-666-222-444-|
|-222-666-222-444-|
|-----444-000-222-|

Intro 2 x1
|---------------------------------------------------------------------|
|---------------------------------------------------------------------|
|-4444444444444444----------------------------------------------------|
|-4444444444444444-4444444444444444-2222222222222222-4444444444444444-|
|-2222222222222222-4444444444444444-2222222222222222-4444444444444444-|
|------------------2222222222222222-0000000000000000-2222222222222222-|

Verse x4
|---------------------|
|---------------------|
|-44-4-44-4-----------|
|-44-4-44-4-22-2-44-4-|
|-22-2-22-2-22-2-44-4-|
|-----------00-0-22-2-|
** ** ** **

Pre-chorus part 1 x3
|-------------------|
|-------------------|
|----------44444444-|
|-22222222-44444444-|
|-22222222-22222222-|
|-00000000----------|

Pre-chorus part 2 1x
|--------------------|
|--------------------|
|--------------------|
|-4444444444444444---|
|-4444444444444444---|
|-2222222222222222---|

Chorus x8
|-----------------|
|-----------------|
|-444-------------|
|-444-666-222-444-|
|-222-666-222-444-|
|-----444-000-222-|

Bridge x2
|------------------------------------|
|------------------------------------|
|------------------------------------|
|-66666666-44444444-2222222222222222-|
|-66666666-44444444-2222222222222222-|
|-44444444-22222222-0000000000000000-|

Interlude (clean)
|------------------------------------------|
|------------------------------------------|
|-----4------------------------------------|
|---4---4-(Repeat this pattern for a while)|
|-2----------------------------------------|
|------------------------------------------|
Chorus x8
|-----------------|
|-----------------|
|-444-------------|
|-444-666-222-444-|
|-222-666-222-444-|
|-----444-000-222-|

Ending x1
|----------------|
|----------------|
|-44----------44-|
|-44-66-22-44-44-|
|-22-66-22-44-22-|
|----44-00-22----|