Allister — Somewhere On Fullerton

На этой странице Вы можете ознакомиться с 3 версиями подбора аккордов для гитары к песне "Somewhere On Fullerton" группы (исполнителя) "Allister".

Verse 1
G:---------------------------------|
D:---------------------------------|
A:-66------------------------------|x2
E:---------------------------------|

Pre Chorus
G:------------------------------------------------------------------|
D:-----------------------------------------------------886655-------|
A:------------------66-8-6-5---------------------------------88-----|x1
E:-4444444466666666----------8-8-6--3-44444444466666666-------------|

Chorus
G:------------------------------------------------------------------|
D:------------------------------------------------------------------|
A:-6666666666666666----------------3333333333333333-----------------|x2
E:-----------------6666666666666666----------------4444444444444444-|

Verse 2
G:------------------------------------------------------------------|
D:------------------------------------------------------------------|
A:-66666666------------------------66666666-------------------------|x1
E:---------666666664444444466666666--------66666666444444446--------|

Pre Chorus
G:------------------------------------------------------------------|
D:-----------------------------------------------------886655-------|
A:------------------66-8-6-5---------------------------------88-----|x1
E:-4444444466666666----------8-8-6--3-44444444466666666-------------|

Chorus
G:------------------------------------------------------------------|
D:------------------------------------------------------------------|
A:-6666666666666666----------------3333333333333333-----------------|x2
E:-----------------6666666666666666----------------4444444444444444-|

Bridge
G:----------------------------------|
D:----------------------------------|
A:-66----------------------33--11---|x2
E:---------66------44---------------|

G:----------------------------------|
D:----------------------------------|
A:-66666666----------------333-111--|x2
E:---------6666666644444444---------|

Pre Chorus
G:------------------------------------------------------------------|
D:-----------------------------------------------------886655-------|
A:------------------66-8-6-5---------------------------------88-----|x1
E:-4444444466666666----------8-8-6--3-44444444466666666-------------|

Chorus/Outro
G:------------------------------------------------------------------|
D:------------------------------------------------------------------|
A:-6666666666666666----------------3333333333333333-----------------|x3
E:-----------------6666666666666666----------------4444444444444444-|

G:--------------------------------------------------------------------|
D:--------------------------------------------------------------------|
A:-6666666666666666----------------3333333333333333----------------6~-|x1
E:-----------------6666666666666666----------------4444444466666666---|
This was easy to figure out,in the video this is when the leads guitarist
comes in the audition place [he is the afro guy];it is standard tuning.
I got half of the last part down.


E-6-0-6-4-3-0---6-0-6-4-6-8---6-0-6-4-3--------2-0---------------------
B---------------------------------------3-3----------------------------
G-------------------------------------------3--------------------------
D----------------------------------------------------------------------
A----------------------------------------------------------------------
E----------------------------------------------------------------------
Allister - Somewhere Down in Fullerton
By:Andrew Mcshan(Guitarguyx182@aol.com)

Intro
e|-----x------------------------------------------------------|
B|-----x------------------------------------------------------|
G|-8-8-x-8-8----------------8-8-------------------------------|
D|-8-8-x-8-8-8-8--6-6-6-6---8-8--8-8-6-6-8--------------------|
A|-6-6-x-6-8-8-8--6-6-6-6---6-6--8-8-6-6-8--------------------|
E|-----x-----6-6--4-4-4-4--------6-6-4-4-6--------------------|
Palm Mute..................

Verse
e|-----x------------------------------------------------------|
B|-----x------------------------------------------------------|
G|-8-8-x-8-8----------------8-8-------------------------------|
D|-8-8-x-8-8-8-8--6-6-6-6---8-8--8-8-6-6-8--------------------|
A|-6-6-x-6-8-8-8--6-6-6-6---6-6--8-8-6-6-8--------------------|
E|-----x-----6-6--4-4-4-4--------6-6-4-4-6--------------------|

Chorus
e|------------------------------------------------------------|
B|------------------------------------------------------------|
G|-8----------------------------------------------------------|
D|-8-8-5--6---------------------------------------------------|
A|-6-8-5--6---------------------------------------------------|
E|---6-3--4---------------------------------------------------|

In Verse 2 GUitar 2 Does this alot of times
e|------------------------------------------------------------|
B|------------------------------------------------------------|
G|-8----------------------------------------------------------|
D|-x----------------------------------------------------------|
A|-6----------------------------------------------------------|
E|------------------------------------------------------------|

Bridge
e|------------------------------------------------------------|
B|------------------------------------------------------------|
G|--8-8-8-----8-----------------------------------------------|
D|--8-8-x-8-8-x-6-6-10-8--------------------------------------|
A|--6-6-6-8-8-6-6-6-10-8--------------------------------------|
E|--------6-6---4-4--8-6--------------------------------------|

e|--6---6-4-3-4-6---6-4--3-4-8--------------------------------|
B|-----4-------------4----------------------------------------|
G|------------------------------------------------------------|
D|------------------------------------------------------------|
A|------------------------------------------------------------|
E|------------------------------------------------------------|

e|------------------------------------------------------------|
B|------------------------------------------------------------|
G|--8-8-8-----8-----------------------------------------------|
D|--8-8-x-8-8-x-6-6-10-8--------------------------------------|
A|--6-6-6-8-8-6-6-6-10-8--------------------------------------|
E|--------6-6---4-4--8-6--------------------------------------|

Then Chorus

somewhere down on fullerton
there's a place we used to go to get away from it all
somewhere down on fullerton
there's a place we used to go to get away from it all

im still trying to figure out why it
feels so wrong when it felt so right
felt so right 4 years ago

so please don't go away
won't this feeling stay with me forever
forever i said
please don't go away
i just want you to stay with me forever

somewhere down on fullerton
there's a place that meant so much to everybody like me
somewhere down on fullerton
there's a place that meant the world to everybody like me

but i'm still trying to figure out why it
feels so wrong when it felt so right
felt so right 4 years ago

so please don't go away
won't this feeling stay with me forever
forever i said
please don't go away
i just you to stay with me forever
i'm still trying to figure out why it
feels so wrong when it feels so right
felt so right 4 years ago
so please don't go away
won't this feeling stay with me forever
forever i said please don't go away
i just want you to stay with me forever
forever i said
please don't go away
won't this feeling stay with me forever
forever i said
please don't go away
cause all i want is you to stay
with me forever
with me