Allister — Waiting For You

-------------------------------------------------------------------------------
Waiting For You - Allister
-------------------------------------------------------------------------------

Tabbed by:Mike G


Tuning: EADGBE

INTRO: 1X
e|---------------------------------------------------------------------------|
B|---------------------------------------------------------------------------|
G|----------------8-8-8-/-10-10-10-----------------5-5-5---------------------|
D|-8-8-8--5-5-5--8-8-8-/-10-10-10--8-8-8--5-5-5--5-5-5-3-3-3-/-8-8-8-------|
A|-8-8-8--5-5-5--6-6-6-/--8--8--8--8-8-8--5-5-5--3-3-3-3-3-3-/-8-8-8-------|
E|-6-6-6--3-3-3--------------------6-6-6--3-3-3--------1-1-1-/-6-6-6-------|

e|---------------------------------------------------------------------------|
B|---------------------------------------------------------------------------|
G|--------8-8-8-/-10-10-10--8-8-8-8-8-8-8-8-/-10-10-10-----------------------|
D|-5-5-5--8-8-8-/-10-10-10--8-8-8-8-8-8-8-8-/-10-10-10-----------------------|
A|-5-5-5--6-6-6-/--8--8--8--6-6-6-6-6-6-6-6-/--8--8--8-----------------------|
E|-3-3-3---------------------------------------------------------------------|

VERSE: 8X
e|---------------------------------------------------------------------------|
B|---------------------------------------------------------------------------|
G|-8-8-8-------------------------8-8-8-/-10-10-10-10-10-10-------------------|
D|-8-8-8--8-8-x-x-x--Do 3 Times--8-8-8-/-10-10-10-10-10-10-------------------|
A|-6-6-6--8-8-x-x-x--On 4th Time-6-6-6-/--8--8--8--8--8--8-------------------|
E|--------6-6-x-x-x----------------------------------------------------------|

CHORUS: 3X
e|---------------------------------------------------------------------------|
B|---------------------------------------------------------------------------|
G|----------------8-8-8-/-10-10-10-------------------------------------------|
D|-8-8-8--5-5-5--8-8-8-/-10-10-10-------------------------------------------|
A|-8-8-8--5-5-5--6-6-6-/--8--8--8-------------------------------------------|
E|-6-6-6--3-3-3-------------------------------------------------------------|

CHORUS: On 4th Time
e|---------------------------------------------------------------------------|
B|---------------------------------------------------------------------------|
G|----------------8-8-8-/-10-10-10---8-8-8-8-8-8-8-/-10-10-10----------------|
D|-8-8-8--5-5-5--8-8-8-/-10-10-10---8-8-8-8-8-8-8-/-10-10-10----------------|
A|-8-8-8--5-5-5--6-6-6-/--8--8--8---6-6-6-6-6-6-6-/--8--8--8----------------|
E|-6-6-6--3-3-3-------------------------------------------------------------|

INTERLUDE: 3x
e|---------------------------------------------------------------------------|
B|---------------------------------------------------------------------------|
G|-8-8-8-8-8-8-8-8--10-10-10-10-10-10-10-10-------------8-8------------------|
D|-8-8-8-8-8-8-8-8--10-10-10-10-10-10-10-10--8-8-8-8-8--8-8--8-8-8-----------|
A|-6-6-6-6-6-6-6-6---8--8-8---8--8--8--8--8--8-8-8-8-8--6-6--8-8-8-----------|
E|-------------------------------------------6-6-6-6-6-------6-6-6-----------|

INTERLUDE:
e|---------------------------------------------------------------------------|
B|---------------------------------------------------------------------------|
G|---------------------------------------------------------------------------|
D|--8--5--------------------------------------------------------------------|
A|--8--5--------------------------------------------------------------------|
E|--6--3--------------------------------------------------------------------|

OUTRO: Play This Last Time
e|---------------------------------|------------------------------------------|
B|---------------------------------|------------------------------------------|
G|----------------8-8-8-/-10-10-10-|----------------5-5-5---------------------|
D|-8-8-8--5-5-5--8-8-8-/-10-10-10-|-8-8-8--5-5-5--5-5-5-3-3-3---------------|
A|-8-8-8--5-5-5--6-6-6-/--8--8--8-|-8-8-8--5-5-5--3-3-3-3-3-3---------------|
E|-6-6-6--3-3-3-------------------|-6-6-6--3-3-3--------1-1-1---------------|

| / slide up
| slide down
| h hammer-on
| p pull-off
| ~ vibrato
| + harmonic
| x Mute note

===============================================================================