Allister — Westbound

На этой странице Вы можете ознакомиться с 3 версиями подбора аккордов для гитары к песне "Westbound" группы (исполнителя) "Allister".

Allister - Westbound
Album: Last Stop Suburbia
Tabbed by: Andrew Lassise

Start on second chord
Intro
G |--------------------------------------|
D |--------------------------------------|
A |-5/8-8-8-8-8-8-8-8-5-5-5-5-3-3-3-3--3-|
E |--------------------------------------|
Verse
G |----------------------------------------|
D |----------------------------------------|
A |----------------------5-5-5-5---3-3-3-3-|
E |-1-1-1-1--1-1-1-1-----------------------|
Pre Chorus
G |---------------------------------------------|
D |---------------------------------------------|
A |-1-1-1-1--1-1-1-1--3-3-3-3--5-5-5-5--5-5-5-5-|
E |---------------------------------------------|

G |----------------------------------------|
D |----------------------------------------|
A |--3-3-3-3--1-1-1-1--1-1-1-1--3-3-3-3--3-|
E |----------------------------------------|
Chorus:
G |------------------------------------|
D |------------------------------------|
A |----------1-1-1-1--5-5-5-5--3-3-3-3-|
E |-1-1-1-1----------------------------|
Bass Break
G |---------3--------------------------|---------3-------------------5-3-2-|
D |-3-3-3-3---3-3-3-3--0-0-0-0---------|-3-3-3-3---3-3-3-3---0-0-0-0-------|
A |----------------------------3-3-3-3-|-----------------------------------|
E |------------------------------------|-----------------------------------|

Solo
G |---------------------|
D |---------------------|
A |------1-1---5-5--3-3-|
E |-1-1-----------------|
End Solo
G |-------|
D |-------|
A |-------|
E |-1~----|
Play half way into chorus (I look into the crowd)
G |--------------------------------------|
D |--------------------------------------|
A |----------1-1-1-1---5-5-5-5--3-3-3-3--|
E |-1-1-1-1------------------------------|

G |--------------------------------|
D |--------------------------------|
A |----------1-1-1-1---5-5-5-5--3--|
E |-1-1-1-1------------------------|
Ending
G |--------3--------------------------|---------3------------------5-3-2---|
D |3-3-3-3---3-3-3-3--0-0-0-0---------|-3-3-3-3---3-3-3-3---0-0-0-0------3~|
A |---------------------------3-3-3-3-|------------------------------------|
E |-----------------------------------|------------------------------------|
-------------------------------------------------------------------------------
Westbound - Allister
-------------------------------------------------------------------------------

Tabbed by: Brian
Email: guitar_freak7@msn.com

Tuning:Standard

Intro

Guitar 1 (Strum this octave chord really fast)
e|------------------|
B|------------------|
G|--10--------------|
D|--x---------------|
A|--8---------------|
E|------------------|


Guitar 2 (Come in at 0:06 and strum this octave fast)
e|------------------|
B|------------------|
G|--14--------------|
D|--x---------------|
A|--12--------------|
E|------------------|


Verse

Guitar 1 and Guitar 2 (Listen to the recording for the strumming pattern)
e|------------------| X4
B|------------------|
G|------7---5-------|
D|--3---7---5-------|
A|--3---5---3-------|
E|--1---------------|


Pre-Chorus

Guitar 1 and Guitar 2 (Listen to the recording for the strumming pattern)
e|------------------------------|
B|------------------------------|
G|--3---5---7---5---3---5-------|
D|--3---5---7---5---3---5-short-|
A|--1---3---5---3---1---3-------|
E|------------------------------|

Chorus

Guitar 1 and Guitar 2 (Listen to the recording for the strumming pattern)
e|------------------------| X4
B|------------------------|
G|------3---7---5---------|
D|--3---3---7---5---------|
A|--3---1---5---3---------|
E|--1---------------------|

After the chorus

Guitar 1 and Guitar 2
e|-----------------|
B|-----------------|
G|-----------------|
D|--3--------------|
A|--3--Let-Ring----|
E|--1--------------|


Verse
Pre-Chorus
Chorus

(On the 4th time of playing the chorus play this)

Guitar 1 and Guitar 2 (Lister to the recording for the stumming Pattern)
e|----------------------------|
B|----------------------------|
G|------3---7---3---3---3-----|
D|--3---3---7---3---3---3-----|
A|--3---1---5---5---1---5-----|
E|--1-------------------------|



Guitar Solo


Guitar 1 plays the chorus


Guitar 2 X2
e|--------------------------------------8------------------------------------|
B|--10--8--------------------10--8--10---------------------------------------|
G|---------10-10-10--7--10---------------------------------------------------|
D|---------------------------------------------------------------------------|
A|---------------------------------------------------------------------------|
E|---------------------------------------------------------------------------|

e|-------------8-------------8-----------8------8------8------8--------------|
B|--10--8----------10--8----------8--8h10--8h10---8h10---8h10---10h8-10p8----|
G|---------10-------------10----------------------------------------------10-|
D|---------------------------------------------------------------------------|
A|---------------------------------------------------------------------------|
E|---------------------------------------------------------------------------|


Chorus (Palm Muted)

Chorus

Guitar 1 and Guitar 2
e|-------|
B|-------|
G|-------|
D|--3----|
A|--3----|
E|--1----|
Westbound by Allister
Amazing song. It was easy to figure out and easy to play but it is a great song
with great lyrics. Best album I own. Check ‘em out www.allisterrock.com.
The very end of the solo is very hard to hear so that may not be totally correct
but I’m pretty sure everything else is

~= let ring
p= pull off


INTRO
e----------------|----------------------------------------------------
b----------------|----------------------------------------------------
g----10----------|------14--------------------------------------------
d-----X----------|-------X--------------------------------------------
a-----8----------|------12--------------------------------------------
e----------------|----------------------------------------------------

Play each of these once for half of the intro and strum repeatedly


VERSE
e---------------------------------------------------------------------
b---------------------------------------------------------------------
g---------------------------------------------------------------------
d-----------------3----5----------------------------------------------
a-3~~~~~~~~~~~~~--5----3----------------------------------------------
e-1~~~~~~~~~~~~~------------------------------------------------------

verse 1- Driving through nights on empty roads, Hoping the clubs promote our
shows, Wasting days with endless naps, Finding ways to fill the gaps
verse 2- Reading to save our numbing minds, Meeting friends we’ll leave behind,
Lay on the loft and trace the stars, Start the day in no ones arms


PRECHORUS
e---------------------------------------------------------------------
b---------------------------------------------------------------------
g---------------------------------------------------------------------
d-------------55555555--77777777--55555555-----------55555555---------
a---33333333--33333333--55555555—-33333333--33333333—33333333---------
e---11111111--------------------------------11111111—-----------------

prechorus 1- Another word game with the band, Another losing rummy hand,
Another night slept in the van
prechorus 2- Another night without a sell, Another meal at Taco Bell,
Another story I can tell

CHORUS
e-------------------------------------------------------------|
b-------------------------------------------------------------|
g-------------------------------------------------------------|
d----------5555—-7777—-5555-----------------------------------| X4
a---3333---3333--5555--3333-----------------------------------|
e---1111------------------------------------------------------|

chorus- I’m forced awake again in time to take the stage, and as my dream world
fades, another takes its place, I look into the crowd and see my self through
stares, Back when I hoped someday I’d be the one up there


SOLO (GUITAR 2 PLAYS SAME THING AS CHORUS)
e-----------------|---------------8|-------------------|----------------|
b----10-8---------|----8-10-8------|------8-10-8-------|-----8-10-8----8|
g-----------10-10-|7-10--------10--|10-10--------10-10-|7-10--------10--|
d-----------------|----------------|-------------------|----------------|
a-----------------|----------------|-------------------|----------------|
e-----------------|----------------|-------------------|----------------|

e-----------8-|-----------------8|-------|-----------8|
b---10-8------|-------8-10-8-----|-------|-8-10p8-----|
g--------10---|-10-10--------10--|-10-10-|--------10--|Repeat last measure
d-------------|------------------|-------|------------| until solo ends
a-------------|------------------|-------|------------|
e-------------|------------------|-------|------------|


OUTRO
e---------------------------------------------------------------------
b---------------------------------------------------------------------
g------5~~~~~~~~~~~~~~~~~~~~~~~---------------------------------------
d------3~~~~~~~~~~~~~~~~~~~~~~~---------------------------------------
a--3------------------------------------------------------------------
e--1------------------------------------------------------------------

Let ring while bass does outro


ORDER
INTRO
VERSE
PRE-CHORUS
CHORUS
VERSE
PRE-CHORUS
CHORUS
SOLO
CHORUS (PALM MUTED)
CHORUS
OUTRO