Allman Brothers — Done Somebody Wrong

Done Somebody Wrong
by Elmore James
As performed by the Allman Brothers
Bass Tab
Transcribed by E. Blanchard


C F C
G---||--------|--------|--------|--------|--------|--------|------------
D---||--------|--------|--------|--------|--3--3--|--3--3--|------------
A---||--3--3--|--3--3--|--3--3--|--3--3--|--------|--------|--3--3------
E---||--------|--------|--------|--------|--------|--------|------------
1st Part

G F C C
G---|--------|--------|--------|--------|--------||---------------------
D---|--------|--5--5--|--3--3--|--------|--------||---------------------
A---|--3--3--|--------|--------|--3--3--|--3--3--||-----1--2--3--3------
E---|--------|--------|--------|--------|--------||--3------------------
2nd Part

F
G---|-----------------|-----------------|-----------------|-------------
D---|-----------------|-----------------|-----------------|-----1--2----
A---|-----1--2--3--3--|-----1--2--3--3--|-----1--2--3--3--|--3----------
E---|--3--------------|--3--------------|--3--------------|-------------


C G
G---------|-----------------|-----------------|-----------------|-------
D---3--3--|-----1--2--3--3--|-----------------|-----------------|-------
A---------|--3--------------|-----1--2--3--3--|-----1--2--3--3--|--5----
E---------|-----------------|--3--------------|--3--------------|-------


F C
G---------------|-----------------|-----------------|-------------------
D---3--4--5--5--|-----1--2--3--3--|-----------------|-------------------
A---------------|--3--------------|-----1--2--3--3--|-----1--2--3--3----
E---------------|-----------------|--3--------------|--3----------------


C
G---||--------------------------|--------------------------|------------
D---||--------------------------|--------------------------|------------
A---||--3--3--------------------|--------0--0--1--1--2--2--|--3--3------
E---||--------0--0--1--1--2--2--|--3--3--------------------|------------
3rd Part

F
G---------------------|--------------------------|----------------------
D---------------------|--------------------------|--3--3----------------
A---------------------|--------0--0--1--1--2--2--|--------0--0--1--1----
E---0--0--1--1--2--2--|--3--3--------------------|----------------------


C
G---------|--------------------------|--------------------------|-------
D---------|--------0--0--1--1--2--2--|--------------------------|-------
A---2--2--|--3--3--------------------|--3--3--------------------|-------
E---------|--------------------------|--------0--0--1--1--2--2--|--3----


G F
G------------------------|--------------------------|-------------------
D------------------------|--5--5--------------------|--3--3-------------
A------0--0--1--1--2--2--|--------2--2--3--3--4--4--|--------0--0--1----
E---3--------------------|--------------------------|-------------------


C
G------------|-----------------------------||---------------------------
D------------|-----------------------------||---------------------------
A---1--2--2--|--3--3-----------------4--3--||---------------------------
E------------|--------0--0--1--1--2--------||---------------------------




========================================================================
== TABLATURE EXPLANATION ==
========================================================================

---------- ---------- ----t---
----5h8--- Hammeron ----(8)--- Ghost ----6--- Tap
---------- ---------- Note --------
----5p8--- Pulloff ---------- --------

---------- ---------- -----p--
----5/8--- Slide Up -----x---- Dead -----7-- Pop
---------- ---------- Note --s-----
----58--- Slide Down ---------- --5----- Slap

---------- ||------|| Repeat --------
----5~~~-- Vibrato ||*----*|| ---5^--- Bend
---------- ||*----*|| --------
---------- ||------|| --------

---------- ---------- --------
-4:------- Time ---------- --------
-4:------- Signature ---------- --------
---------- ---------- --------

Rhythm:
w = whole note W = dotted whole
h = half note H = dotted half
q = quarter note Q = dotted quarter
e = eighth note E = dotted eighth
s = sixteenth note S = dotted sixteenth
t = 32nd note T = dotted 32nd
x = 64th note X = dotted 64th
^ = triplet

========================================================================
== Created with a demo version of BUCKET O' TAB ==
== tablature creation software for Windows ==
== For more info email gse@his.com ==
========================================================================