Allman Brothers — Hoochie Koochie Man

Hoochie Koochie Man
by Allman Brothers
Bass Tab
As played by E. Blanchard



Intro
G-------||-----------------------------------------------------|--------
D---4:--||*-------------------------------5--6--7--5-----------|--------
A---4:--||*-----------3-----3--5--3--5h7--------------7--------|--------
E-------||---5--5--5-----5-------------------------------8--5--|--5-----


Verse
G-----------------------------------------------|-----------------------
D-----------------------------5--6--7-----------|-----------------------
A---------3-----3--5--3--5h7-----------5--6--7--|--0--0--0--0--5--0-----
E---5--5-----5----------------------------------|-----------------------



G------|-----------------------|-----------------------|----------------
D------|-----------------------|-----------------------|----------------
A---3--|--0--0--0--0--5--0--3--|--0--0--0--0--5--0--3--|--0--0--0--0----
E------|-----------------------|-----------------------|----------------



G------------|-----------------------|-----------------------|----------
D------------|--0--0--0--0--5--0--3--|--0--0--0--0--5--0--3--|----------
A---5--0--3--|-----------------------|-----------------------|--0--0----
E------------|-----------------------|-----------------------|----------



G------------------|-----------------------|----------------------------
D------------------|-----------------------|-----6--7--9--9--7--6-------
A---0--0--5--0--3--|--0--0--0--0--5--0--3--|--7--------------------9----
E------------------|-----------------------|----------------------------



G-------------------------||--------------------------------------------
D------------------------*||--------------------------------------------
A---5--5--5--3--3--2--2--*||--------------------------------------------
E-------------------------||--------------------------------------------




========================================================================
== TABLATURE EXPLANATION ==
========================================================================

---------- ---------- ----t---
----5h8--- Hammeron ----(8)--- Ghost ----6--- Tap
---------- ---------- Note --------
----5p8--- Pulloff ---------- --------

---------- ---------- -----p--
----5/8--- Slide Up -----x---- Dead -----7-- Pop
---------- ---------- Note --s-----
----58--- Slide Down ---------- --5----- Slap

---------- ||------|| Repeat --------
----5~~~-- Vibrato ||*----*|| ---5^--- Bend
---------- ||*----*|| --------
---------- ||------|| --------

---------- ---------- --------
-4:------- Time ---------- --------
-4:------- Signature ---------- --------
---------- ---------- --------

Rhythm:
w = whole note W = dotted whole
h = half note H = dotted half
q = quarter note Q = dotted quarter
e = eighth note E = dotted eighth
s = sixteenth note S = dotted sixteenth
t = 32nd note T = dotted 32nd
x = 64th note X = dotted 64th
^ = triplet

========================================================================
== Created with a demo version of BUCKET O' TAB ==
== tablature creation software for Windows ==
== For more info email gse@his.com ==
========================================================================