Allman Brothers — Les Brers In A Minor

-------------------------------------------------------------------------------
LES BRERS IN A MINOR - Allman Brothers
-------------------------------------------------------------------------------
Tabbed by: Jake
Email: friendofthedevii@hotmail.com

Tuning: Standard

e|---7--9--10--9--10--12--10--9--7---------------------------|
B|-7-------------------------------7--(7)--------------------|
G|-----------------------------------------------------------|
D|-----------------------------------------------------------|
A|-----------------------------------------------------------|
E|-----------------------------------------------------------|

e|---7--9--10--9--10--12--10--12/17--15--14------------------|
B|-7---------------------------------------------------------|
G|-----------------------------------------------------------|
D|-----------------------------------------------------------|
A|-----------------------------------------------------------|
E|-----------------------------------------------------------|

e|-14--15--17--17--15--15--14--14--12--12--------------------|
B|-----------------------------------------------------------|
G|-----------------------------------------------------------|
D|-----------------------------------------------------------|
A|-----------------------------------------------------------|
E|-----------------------------------------------------------|

e|-10--10--9--9--7----7--9--10--10--9--5--7/9--7--(7)--------|
B|-----------------------------------------------------------|
G|-----------------------------------------------------------|
D|-----------------------------------------------------------|
A|-----------------------------------------------------------|
E|-----------------------------------------------------------|



| / slide up
| slide down
| h hammer-on
| p pull-off
| ~ vibrato
| + harmonic
| x Mute note
===============================================================================